  0
SECTION
  2
HEADER
  9
$ACADVER
  1
AC1015
  9
$ACADMAINTVER
 70
     6
  9
$DWGCODEPAGE
  3
ANSI_1254
  9
$INSBASE
 10
0.0
 20
0.0
 30
0.0
  9
$EXTMIN
 10
0.0
 20
0.0
 30
0.0
  9
$EXTMAX
 10
279.4
 20
215.9
 30
0.0
  9
$LIMMIN
 10
0.0
 20
0.0
  9
$LIMMAX
 10
279.4
 20
215.9
  9
$ORTHOMODE
 70
     0
  9
$REGENMODE
 70
     1
  9
$FILLMODE
 70
     1
  9
$QTEXTMODE
 70
     0
  9
$MIRRTEXT
 70
     1
  9
$LTSCALE
 40
1.0
  9
$ATTMODE
 70
     1
  9
$TEXTSIZE
 40
3.5
  9
$TRACEWID
 40
1.0
  9
$TEXTSTYLE
  7
Standard
  9
$CLAYER
  8
0
  9
$CELTYPE
  6
ByLayer
  9
$CECOLOR
 62
   256
  9
$CELTSCALE
 40
1.0
  9
$DISPSILH
 70
     0
  9
$DIMSCALE
 40
1.0
  9
$DIMASZ
 40
3.5
  9
$DIMEXO
 40
1.0
  9
$DIMDLI
 40
3.75
  9
$DIMRND
 40
0.0
  9
$DIMDLE
 40
0.0
  9
$DIMEXE
 40
1.0
  9
$DIMTP
 40
0.0
  9
$DIMTM
 40
0.0
  9
$DIMTXT
 40
3.5
  9
$DIMCEN
 40
2.5
  9
$DIMTSZ
 40
0.0
  9
$DIMTOL
 70
     0
  9
$DIMLIM
 70
     0
  9
$DIMTIH
 70
     1
  9
$DIMTOH
 70
     1
  9
$DIMSE1
 70
     0
  9
$DIMSE2
 70
     0
  9
$DIMTAD
 70
     1
  9
$DIMZIN
 70
     0
  9
$DIMBLK
  1

  9
$DIMASO
 70
     1
  9
$DIMSHO
 70
     1
  9
$DIMPOST
  1

  9
$DIMAPOST
  1

  9
$DIMALT
 70
     0
  9
$DIMALTD
 70
     3
  9
$DIMALTF
 40
0.0393700787
  9
$DIMLFAC
 40
1.0
  9
$DIMTOFL
 70
     1
  9
$DIMTVP
 40
0.0
  9
$DIMTIX
 70
     0
  9
$DIMSOXD
 70
     0
  9
$DIMSAH
 70
     0
  9
$DIMBLK1
  1

  9
$DIMBLK2
  1

  9
$DIMSTYLE
  2
ISO-25
  9
$DIMCLRD
 70
     0
  9
$DIMCLRE
 70
     0
  9
$DIMCLRT
 70
     0
  9
$DIMTFAC
 40
1.0
  9
$DIMGAP
 40
1.524
  9
$DIMJUST
 70
     0
  9
$DIMSD1
 70
     0
  9
$DIMSD2
 70
     0
  9
$DIMTOLJ
 70
     0
  9
$DIMTZIN
 70
     0
  9
$DIMALTZ
 70
     0
  9
$DIMALTTZ
 70
     0
  9
$DIMUPT
 70
     0
  9
$DIMDEC
 70
     2
  9
$DIMTDEC
 70
     2
  9
$DIMALTU
 70
     2
  9
$DIMALTTD
 70
     3
  9
$DIMTXSTY
  7
Standard
  9
$DIMAUNIT
 70
     0
  9
$DIMADEC
 70
     2
  9
$DIMALTRND
 40
0.0
  9
$DIMAZIN
 70
     0
  9
$DIMDSEP
 70
    44
  9
$DIMATFIT
 70
     3
  9
$DIMFRAC
 70
     0
  9
$DIMLDRBLK
  1

  9
$DIMLUNIT
 70
     2
  9
$DIMLWD
 70
    -2
  9
$DIMLWE
 70
    -2
  9
$DIMTMOVE
 70
     0
  9
$LUNITS
 70
     2
  9
$LUPREC
 70
     2
  9
$SKETCHINC
 40
1.0
  9
$FILLETRAD
 40
10.0
  9
$AUNITS
 70
     0
  9
$AUPREC
 70
     2
  9
$MENU
  1
.
  9
$ELEVATION
 40
0.0
  9
$PELEVATION
 40
0.0
  9
$THICKNESS
 40
0.0
  9
$LIMCHECK
 70
     0
  9
$CHAMFERA
 40
0.0
  9
$CHAMFERB
 40
0.0
  9
$CHAMFERC
 40
0.0
  9
$CHAMFERD
 40
0.0
  9
$SKPOLY
 70
     0
  9
$TDCREATE
 40
2458985.668862535
  9
$TDUCREATE
 40
2458985.543862535
  9
$TDUPDATE
 40
2458985.668862789
  9
$TDUUPDATE
 40
2458985.543862789
  9
$TDINDWG
 40
0.0000000116
  9
$TDUSRTIMER
 40
0.0000000116
  9
$USRTIMER
 70
     1
  9
$ANGBASE
 50
0.0
  9
$ANGDIR
 70
     0
  9
$PDMODE
 70
     0
  9
$PDSIZE
 40
-1.0
  9
$PLINEWID
 40
0.0
  9
$SPLFRAME
 70
     0
  9
$SPLINETYPE
 70
     6
  9
$SPLINESEGS
 70
     8
  9
$HANDSEED
  5
D2
  9
$SURFTAB1
 70
     6
  9
$SURFTAB2
 70
     6
  9
$SURFTYPE
 70
     6
  9
$SURFU
 70
     6
  9
$SURFV
 70
     6
  9
$UCSBASE
  2

  9
$UCSNAME
  2

  9
$UCSORG
 10
0.0
 20
0.0
 30
0.0
  9
$UCSXDIR
 10
1.0
 20
0.0
 30
0.0
  9
$UCSYDIR
 10
0.0
 20
1.0
 30
0.0
  9
$UCSORTHOREF
  2

  9
$UCSORTHOVIEW
 70
     0
  9
$UCSORGTOP
 10
0.0
 20
0.0
 30
0.0
  9
$UCSORGBOTTOM
 10
0.0
 20
0.0
 30
0.0
  9
$UCSORGLEFT
 10
0.0
 20
0.0
 30
0.0
  9
$UCSORGRIGHT
 10
0.0
 20
0.0
 30
0.0
  9
$UCSORGFRONT
 10
0.0
 20
0.0
 30
0.0
  9
$UCSORGBACK
 10
0.0
 20
0.0
 30
0.0
  9
$PUCSBASE
  2

  9
$PUCSNAME
  2

  9
$PUCSORG
 10
0.0
 20
0.0
 30
0.0
  9
$PUCSXDIR
 10
1.0
 20
0.0
 30
0.0
  9
$PUCSYDIR
 10
0.0
 20
1.0
 30
0.0
  9
$PUCSORTHOREF
  2

  9
$PUCSORTHOVIEW
 70
     0
  9
$PUCSORGTOP
 10
0.0
 20
0.0
 30
0.0
  9
$PUCSORGBOTTOM
 10
0.0
 20
0.0
 30
0.0
  9
$PUCSORGLEFT
 10
0.0
 20
0.0
 30
0.0
  9
$PUCSORGRIGHT
 10
0.0
 20
0.0
 30
0.0
  9
$PUCSORGFRONT
 10
0.0
 20
0.0
 30
0.0
  9
$PUCSORGBACK
 10
0.0
 20
0.0
 30
0.0
  9
$USERI1
 70
     0
  9
$USERI2
 70
     0
  9
$USERI3
 70
     0
  9
$USERI4
 70
     0
  9
$USERI5
 70
     0
  9
$USERR1
 40
0.0
  9
$USERR2
 40
0.0
  9
$USERR3
 40
0.0
  9
$USERR4
 40
0.0
  9
$USERR5
 40
0.0
  9
$WORLDVIEW
 70
     1
  9
$SHADEDGE
 70
     3
  9
$SHADEDIF
 70
    70
  9
$TILEMODE
 70
     1
  9
$MAXACTVP
 70
    64
  9
$PINSBASE
 10
0.0
 20
0.0
 30
0.0
  9
$PLIMCHECK
 70
     0
  9
$PEXTMIN
 10
1.0000000000E+20
 20
1.0000000000E+20
 30
1.0000000000E+20
  9
$PEXTMAX
 10
-1.0000000000E+20
 20
-1.0000000000E+20
 30
-1.0000000000E+20
  9
$PLIMMIN
 10
0.0
 20
0.0
  9
$PLIMMAX
 10
420.0
 20
297.0
  9
$UNITMODE
 70
     0
  9
$VISRETAIN
 70
     1
  9
$PLINEGEN
 70
     0
  9
$PSLTSCALE
 70
     1
  9
$TREEDEPTH
 70
  3020
  9
$CMLSTYLE
  2
Standard
  9
$CMLJUST
 70
     0
  9
$CMLSCALE
 40
20.0
  9
$PROXYGRAPHICS
 70
     1
  9
$MEASUREMENT
 70
     1
  9
$CELWEIGHT
370
    -1
  9
$ENDCAPS
280
     0
  9
$JOINSTYLE
280
     0
  9
$LWDISPLAY
290
     1
  9
$INSUNITS
 70
     4
  9
$HYPERLINKBASE
  1

  9
$STYLESHEET
  1

  9
$XEDIT
290
     1
  9
$CEPSNTYPE
380
     0
  9
$PSTYLEMODE
290
     1
  9
$FINGERPRINTGUID
  2
{e03fc4e3-ed73-4525-b154-7752fd4031e0}
  9
$VERSIONGUID
  2
{FAEB1C32-E019-11D5-929B-00C0DF256EC4}
  9
$EXTNAMES
290
     1
  9
$PSVPSCALE
 40
0.0
  9
$OLESTARTUP
290
     0
  0
ENDSEC
  0
SECTION
  2
CLASSES
  0
CLASS
  1
ACDBDICTIONARYWDFLT
  2
AcDbDictionaryWithDefault
  3
ObjectDBX Classes
 90
        0
280
     0
281
     0
  0
CLASS
  1
VISUALSTYLE
  2
AcDbVisualStyle
  3
ObjectDBX Classes
 90
     4095
280
     0
281
     0
  0
CLASS
  1
MATERIAL
  2
AcDbMaterial
  3
ObjectDBX Classes
 90
     1153
280
     0
281
     0
  0
CLASS
  1
SCALE
  2
AcDbScale
  3
ObjectDBX Classes
 90
     1153
280
     0
281
     0
  0
CLASS
  1
TABLESTYLE
  2
AcDbTableStyle
  3
ObjectDBX Classes
 90
     4095
280
     0
281
     0
  0
CLASS
  1
MLEADERSTYLE
  2
AcDbMLeaderStyle
  3
ACDB_MLEADERSTYLE_CLASS
 90
     4095
280
     0
281
     0
  0
CLASS
  1
SUN
  2
AcDbSun
  3
SCENEOE
 90
     1153
280
     0
281
     0
  0
CLASS
  1
ACDBPLACEHOLDER
  2
AcDbPlaceHolder
  3
ObjectDBX Classes
 90
        0
280
     0
281
     0
  0
CLASS
  1
LAYOUT
  2
AcDbLayout
  3
ObjectDBX Classes
 90
        0
280
     0
281
     0
  0
ENDSEC
  0
SECTION
  2
TABLES
  0
TABLE
  2
VPORT
  5
8
330
0
100
AcDbSymbolTable
 70
     1
  0
VPORT
  5
29
330
8
100
AcDbSymbolTableRecord
100
AcDbViewportTableRecord
  2
*Active
 70
     0
 10
0.0
 20
0.0
 11
1.0
 21
1.0
 12
139.7
 22
107.95
 13
0.0
 23
0.0
 14
10.0
 24
10.0
 15
10.0
 25
10.0
 16
0.0
 26
0.0
 36
1.0
 17
0.0
 27
0.0
 37
0.0
 40
215.9
 41
1.2941176471
 42
50.0
 43
0.0
 44
0.0
 50
0.0
 51
0.0
 71
     0
 72
  2000
 73
     1
 74
     3
 75
     0
 76
     0
 77
     0
 78
     0
281
     0
 65
     1
110
0.0
120
0.0
130
0.0
111
1.0
121
0.0
131
0.0
112
0.0
122
1.0
132
0.0
 79
     0
146
0.0
  0
ENDTAB
  0
TABLE
  2
LTYPE
  5
5
330
0
100
AcDbSymbolTable
 70
     6
  0
LTYPE
  5
14
330
5
100
AcDbSymbolTableRecord
100
AcDbLinetypeTableRecord
  2
ByBlock
 70
     0
  3

 72
    65
 73
     0
 40
0.0
  0
LTYPE
  5
15
330
5
100
AcDbSymbolTableRecord
100
AcDbLinetypeTableRecord
  2
ByLayer
 70
     0
  3

 72
    65
 73
     0
 40
0.0
  0
LTYPE
  5
16
330
5
100
AcDbSymbolTableRecord
100
AcDbLinetypeTableRecord
  2
Continuous
 70
     0
  3
Solid line
 72
    65
 73
     0
 40
0.0
  0
LTYPE
  5
6E
330
5
100
AcDbSymbolTableRecord
100
AcDbLinetypeTableRecord
  2
HIDDEN
 70
     0
  3
Hidden __ __ __ __ __ __ __ __ __ __ __ __ __ __
 72
    65
 73
     2
 40
1.905
 49
1.27
 74
     0
 49
-0.635
 74
     0
  0
LTYPE
  5
6F
330
5
100
AcDbSymbolTableRecord
100
AcDbLinetypeTableRecord
  2
PHANTOM
 70
     0
  3
Phantom ______  __  __  ______  __  __  ______
 72
    65
 73
     6
 40
12.7
 49
6.35
 74
     0
 49
-1.27
 74
     0
 49
1.27
 74
     0
 49
-1.27
 74
     0
 49
1.27
 74
     0
 49
-1.27
 74
     0
  0
LTYPE
  5
70
330
5
100
AcDbSymbolTableRecord
100
AcDbLinetypeTableRecord
  2
CENTER
 70
     0
  3
Center ____ _ ____ _ ____ _ ____ _ ____ _ ____
 72
    65
 73
     4
 40
10.16
 49
6.35
 74
     0
 49
-1.27
 74
     0
 49
1.27
 74
     0
 49
-1.27
 74
     0
  0
LTYPE
  5
71
330
5
100
AcDbSymbolTableRecord
100
AcDbLinetypeTableRecord
  2
CENTERX2
 70
     0
  3
Center (2x) ________  __  ________  __  _____
 72
    65
 73
     4
 40
20.32
 49
12.7
 74
     0
 49
-2.54
 74
     0
 49
2.54
 74
     0
 49
-2.54
 74
     0
  0
LTYPE
  5
72
330
5
100
AcDbSymbolTableRecord
100
AcDbLinetypeTableRecord
  2
DOT2
 70
     0
  3
Dot (.5x) ........................................
 72
    65
 73
     2
 40
0.635
 49
0.0
 74
     0
 49
-0.635
 74
     0
  0
ENDTAB
  0
TABLE
  2
LAYER
  5
2
330
0
100
AcDbSymbolTable
 70
    17
  0
LAYER
  5
10
330
2
100
AcDbSymbolTableRecord
100
AcDbLayerTableRecord
  2
0
 70
     0
 62
     7
  6
Continuous
370
    -3
390
F
  0
LAYER
  5
73
330
2
100
AcDbSymbolTableRecord
100
AcDbLayerTableRecord
  2
FORMAT
 70
     0
 62
     7
  6
Continuous
370
    -3
390
F
  0
LAYER
  5
74
330
2
100
AcDbSymbolTableRecord
100
AcDbLayerTableRecord
  2
YARDIMCI_GEOMETRI
 70
     0
 62
    -6
  6
Continuous
290
     0
370
    -3
390
F
  0
LAYER
  5
75
330
2
100
AcDbSymbolTableRecord
100
AcDbLayerTableRecord
  2
SAYFA_CERCEVESI
 70
     0
 62
     7
  6
Continuous
370
    25
390
F
  0
LAYER
  5
76
330
2
100
AcDbSymbolTableRecord
100
AcDbLayerTableRecord
  2
ANTET
 70
     0
 62
     7
  6
Continuous
370
    -3
390
F
  0
LAYER
  5
77
330
2
100
AcDbSymbolTableRecord
100
AcDbLayerTableRecord
  2
OLCU
 70
     0
 62
   150
  6
Continuous
370
    -3
390
F
  0
LAYER
  5
78
330
2
100
AcDbSymbolTableRecord
100
AcDbLayerTableRecord
  2
METIN
 70
     0
 62
    96
  6
Continuous
370
    -3
390
F
  0
LAYER
  5
79
330
2
100
AcDbSymbolTableRecord
100
AcDbLayerTableRecord
  2
BALON
 70
     0
 62
     5
  6
Continuous
370
    -3
390
F
  0
LAYER
  5
7A
330
2
100
AcDbSymbolTableRecord
100
AcDbLayerTableRecord
  2
VURGU
 70
     0
 62
     7
  6
Continuous
370
    -3
390
F
  0
LAYER
  5
7B
330
2
100
AcDbSymbolTableRecord
100
AcDbLayerTableRecord
  2
SILIK
 70
     0
 62
     7
  6
Continuous
370
    -3
390
F
  0
LAYER
  5
7C
330
2
100
AcDbSymbolTableRecord
100
AcDbLayerTableRecord
  2
MODEL
 70
     0
 62
     7
  6
Continuous
370
    -3
390
F
  0
LAYER
  5
7D
330
2
100
AcDbSymbolTableRecord
100
AcDbLayerTableRecord
  2
DETAYLANDıRMA
 70
     0
 62
   190
  6
Continuous
370
    -3
390
F
  0
LAYER
  5
7E
330
2
100
AcDbSymbolTableRecord
100
AcDbLayerTableRecord
  2
TOLERANS
 70
     0
 62
   230
  6
Continuous
370
    -3
390
F
  0
LAYER
  5
7F
330
2
100
AcDbSymbolTableRecord
100
AcDbLayerTableRecord
  2
MERKEZ_CIZGILERI
 70
     0
 62
    30
  6
Continuous
370
    -3
390
F
  0
LAYER
  5
80
330
2
100
AcDbSymbolTableRecord
100
AcDbLayerTableRecord
  2
KESIT-DETAY_CIZGILERI
 70
     0
 62
     7
  6
Continuous
370
    -3
390
F
  0
LAYER
  5
81
330
2
100
AcDbSymbolTableRecord
100
AcDbLayerTableRecord
  2
\U+041E\U+0421\U+0415\U+0412\U+042B\U+0415
 70
     0
 62
     7
  6
Continuous
370
    -3
390
F
  0
LAYER
  5
82
330
2
100
AcDbSymbolTableRecord
100
AcDbLayerTableRecord
  2
\U+0412\U+041E\U+0414\U+042F\U+041D\U+042B\U+0415_\U+0417\U+041D\U+0410\U+041A\U+0418
 70
     0
 62
    11
  6
Continuous
370
    -3
390
F
  0
ENDTAB
  0
TABLE
  2
STYLE
  5
3
330
0
100
AcDbSymbolTable
 70
     1
  0
STYLE
  5
11
330
3
100
AcDbSymbolTableRecord
100
AcDbTextStyleTableRecord
  2
Standard
 70
     0
 40
0.0
 41
1.0
 50
0.0
 71
     0
 42
3.5
  3
txt
  4

  0
ENDTAB
  0
TABLE
  2
VIEW
  5
6
330
0
100
AcDbSymbolTable
 70
     0
  0
ENDTAB
  0
TABLE
  2
UCS
  5
7
330
0
100
AcDbSymbolTable
 70
     0
  0
ENDTAB
  0
TABLE
  2
APPID
  5
9
330
0
100
AcDbSymbolTable
 70
     1
  0
APPID
  5
12
330
9
100
AcDbSymbolTableRecord
100
AcDbRegAppTableRecord
  2
ACAD
 70
     0
  0
ENDTAB
  0
TABLE
  2
DIMSTYLE
  5
A
330
0
100
AcDbSymbolTable
 70
     1
100
AcDbDimStyleTable
  0
DIMSTYLE
105
27
330
A
100
AcDbSymbolTableRecord
100
AcDbDimStyleTableRecord
  2
ISO-25
 70
     0
 41
2.5
 42
0.625
 43
3.75
 44
1.25
 73
     0
 74
     0
 77
     1
 78
     8
140
2.5
141
2.5
143
0.0393700787
147
0.625
171
     3
172
     1
178
     0
271
     2
272
     2
274
     3
278
    44
283
     0
284
     8
340
11
  0
ENDTAB
  0
TABLE
  2
BLOCK_RECORD
  5
1
330
0
100
AcDbSymbolTable
 70
     3
  0
BLOCK_RECORD
  5
1F
330
1
100
AcDbSymbolTableRecord
100
AcDbBlockTableRecord
  2
*Model_Space
340
22
  0
BLOCK_RECORD
  5
1B
330
1
100
AcDbSymbolTableRecord
100
AcDbBlockTableRecord
  2
*Paper_Space
340
1E
  0
BLOCK_RECORD
  5
23
330
1
100
AcDbSymbolTableRecord
100
AcDbBlockTableRecord
  2
*Paper_Space0
340
26
  0
BLOCK_RECORD
  5
94
330
1
100
AcDbSymbolTableRecord
100
AcDbBlockTableRecord
  2
SW_CENTERMARKSYMBOL_0
340
0
102
{BLKREFS
331
9F
102
}
  0
BLOCK_RECORD
  5
A5
330
1
100
AcDbSymbolTableRecord
100
AcDbBlockTableRecord
  2
SW_CENTERMARKSYMBOL_1
340
0
102
{BLKREFS
331
B0
102
}
  0
ENDTAB
  0
ENDSEC
  0
SECTION
  2
BLOCKS
  0
BLOCK
  5
20
330
1F
100
AcDbEntity
  8
0
100
AcDbBlockBegin
  2
*Model_Space
 70
     0
 10
0.0
 20
0.0
 30
0.0
  3
*Model_Space
  1

  0
ENDBLK
  5
21
330
1F
100
AcDbEntity
  8
0
100
AcDbBlockEnd
  0
BLOCK
  5
1C
330
1B
100
AcDbEntity
 67
     1
  8
0
100
AcDbBlockBegin
  2
*Paper_Space
 70
     0
 10
0.0
 20
0.0
 30
0.0
  3
*Paper_Space
  1

  0
ENDBLK
  5
1D
330
1B
100
AcDbEntity
 67
     1
  8
0
100
AcDbBlockEnd
  0
BLOCK
  5
24
330
23
100
AcDbEntity
  8
0
100
AcDbBlockBegin
  2
*Paper_Space0
 70
     0
 10
0.0
 20
0.0
 30
0.0
  3
*Paper_Space0
  1

  0
ENDBLK
  5
25
330
23
100
AcDbEntity
  8
0
100
AcDbBlockEnd
  0
BLOCK
  5
95
330
94
100
AcDbEntity
  8
0
100
AcDbBlockBegin
  2
SW_CENTERMARKSYMBOL_0
 70
     0
 10
0.0
 20
0.0
 30
0.0
  3
SW_CENTERMARKSYMBOL_0
  1

  0
LINE
  5
97
330
94
100
AcDbEntity
  8
FORMAT
 62
     0
100
AcDbLine
 10
0.0
 20
0.0
 30
0.0
 11
0.0
 21
2.5
 31
0.0
  0
LINE
  5
98
330
94
100
AcDbEntity
  8
FORMAT
 62
     0
100
AcDbLine
 10
0.0
 20
0.0
 30
0.0
 11
-2.5
 21
0.0
 31
0.0
  0
LINE
  5
99
330
94
100
AcDbEntity
  8
FORMAT
 62
     0
100
AcDbLine
 10
0.0
 20
0.0
 30
0.0
 11
0.0
 21
-2.5
 31
0.0
  0
LINE
  5
9A
330
94
100
AcDbEntity
  8
FORMAT
 62
     0
100
AcDbLine
 10
0.0
 20
0.0
 30
0.0
 11
2.5
 21
0.0
 31
0.0
  0
LINE
  5
9B
330
94
100
AcDbEntity
  8
FORMAT
 62
     0
100
AcDbLine
 10
0.0
 20
5.0
 30
0.0
 11
0.0
 21
115.0
 31
0.0
  0
LINE
  5
9C
330
94
100
AcDbEntity
  8
FORMAT
 62
     0
100
AcDbLine
 10
-5.0
 20
0.0
 30
0.0
 11
-115.0
 21
0.0
 31
0.0
  0
LINE
  5
9D
330
94
100
AcDbEntity
  8
FORMAT
 62
     0
100
AcDbLine
 10
0.0
 20
-5.0
 30
0.0
 11
0.0
 21
-115.0
 31
0.0
  0
LINE
  5
9E
330
94
100
AcDbEntity
  8
FORMAT
 62
     0
100
AcDbLine
 10
5.0
 20
0.0
 30
0.0
 11
115.0
 21
0.0
 31
0.0
  0
ENDBLK
  5
96
330
94
100
AcDbEntity
  8
0
100
AcDbBlockEnd
  0
BLOCK
  5
A6
330
A5
100
AcDbEntity
  8
0
100
AcDbBlockBegin
  2
SW_CENTERMARKSYMBOL_1
 70
     0
 10
0.0
 20
0.0
 30
0.0
  3
SW_CENTERMARKSYMBOL_1
  1

  0
LINE
  5
A8
330
A5
100
AcDbEntity
  8
FORMAT
 62
     0
100
AcDbLine
 10
0.0
 20
0.0
 30
0.0
 11
0.0
 21
2.5
 31
0.0
  0
LINE
  5
A9
330
A5
100
AcDbEntity
  8
FORMAT
 62
     0
100
AcDbLine
 10
0.0
 20
0.0
 30
0.0
 11
-2.5
 21
0.0
 31
0.0
  0
LINE
  5
AA
330
A5
100
AcDbEntity
  8
FORMAT
 62
     0
100
AcDbLine
 10
0.0
 20
0.0
 30
0.0
 11
0.0
 21
-2.5
 31
0.0
  0
LINE
  5
AB
330
A5
100
AcDbEntity
  8
FORMAT
 62
     0
100
AcDbLine
 10
0.0
 20
0.0
 30
0.0
 11
2.5
 21
0.0
 31
0.0
  0
LINE
  5
AC
330
A5
100
AcDbEntity
  8
FORMAT
 62
     0
100
AcDbLine
 10
0.0
 20
5.0
 30
0.0
 11
0.0
 21
115.0
 31
0.0
  0
LINE
  5
AD
330
A5
100
AcDbEntity
  8
FORMAT
 62
     0
100
AcDbLine
 10
-5.0
 20
0.0
 30
0.0
 11
-115.0
 21
0.0
 31
0.0
  0
LINE
  5
AE
330
A5
100
AcDbEntity
  8
FORMAT
 62
     0
100
AcDbLine
 10
0.0
 20
-5.0
 30
0.0
 11
0.0
 21
-115.0
 31
0.0
  0
LINE
  5
AF
330
A5
100
AcDbEntity
  8
FORMAT
 62
     0
100
AcDbLine
 10
5.0
 20
0.0
 30
0.0
 11
115.0
 21
0.0
 31
0.0
  0
ENDBLK
  5
A7
330
A5
100
AcDbEntity
  8
0
100
AcDbBlockEnd
  0
ENDSEC
  0
SECTION
  2
ENTITIES
  0
LINE
  5
83
330
1F
100
AcDbEntity
  8
0
  6
Continuous
 62
     7
370
    25
100
AcDbLine
 10
25.8963288833
 20
309.612662412
 30
0.0
 11
25.8963288833
 21
-26.2630424725
 31
0.0
  0
LINE
  5
84
330
1F
100
AcDbEntity
  8
0
  6
Continuous
 62
     7
370
    25
100
AcDbLine
 10
250.8963229228
 20
-26.2630424725
 30
0.0
 11
250.8963229228
 21
309.612662412
 31
0.0
  0
LINE
  5
85
330
1F
100
AcDbEntity
  8
0
  6
Continuous
 62
     7
370
    25
100
AcDbLine
 10
250.8963229228
 20
309.612662412
 30
0.0
 11
250.8963229228
 21
448.7369366658
 31
0.0
  0
LINE
  5
86
330
1F
100
AcDbEntity
  8
0
  6
Continuous
 62
     7
370
    25
100
AcDbLine
 10
250.8963229228
 20
-243.2630352008
 30
0.0
 11
250.8963229228
 21
-26.2630424725
 31
0.0
  0
LINE
  5
87
330
1F
100
AcDbEntity
  8
0
  6
Continuous
 62
     7
370
    25
100
AcDbLine
 10
25.8963288833
 20
-26.2630424725
 30
0.0
 11
25.8963288833
 21
-243.2630352008
 31
0.0
  0
LINE
  5
88
330
1F
100
AcDbEntity
  8
0
  6
Continuous
 62
     7
370
    25
100
AcDbLine
 10
25.8963288833
 20
448.7369366658
 30
0.0
 11
25.8963288833
 21
309.612662412
 31
0.0
  0
LWPOLYLINE
  5
89
330
1F
100
AcDbEntity
  8
0
  6
Continuous
 62
     7
370
    25
100
AcDbPolyline
 90
      106
 70
   128
 43
0.0
 10
138.3963259031
 20
379.6869822515
 10
132.4697340932
 20
379.5615144742
 10
126.5643578117
 20
379.1857071889
 10
120.7013385464
 20
378.5608716977
 10
114.9016613234
 20
377.6891537679
 10
109.1860881169
 20
376.5737720502
 10
103.5750800837
 20
375.2186604512
 10
98.0887258519
 20
373.6287065519
 10
92.7466595639
 20
371.809632398
 10
87.5680068602
 20
369.7678752912
 10
82.5713085104
 20
367.5107666028
 10
77.7744496335
 20
365.0464125646
 10
73.194596367
 20
362.3836346639
 10
68.8481511642
 20
359.5319100392
 10
64.7506745626
 20
356.5015502942
 10
60.9168293048
 20
353.3032842649
 10
57.3603319098
 20
349.9486156476
 10
54.0939303209
 20
346.4495845807
 10
51.1293070485
 20
342.8187080396
 10
48.4770791699
 20
339.0689202321
 10
46.1467387248
 20
335.213691808
 10
44.146622913
 20
331.266851045
 10
42.483899193
 20
327.242464639
 10
41.1645205785
 20
323.1549569142
 10
40.1932032873
 20
319.0189906133
 10
39.5734267403
 20
314.849347688
 10
39.3074186613
 20
310.6609292997
 10
39.3961103727
 20
306.4688154233
 10
39.8392038514
 20
302.2879072202
 10
40.635104673
 20
298.1332846654
 10
41.780966716
 20
294.0196701062
 10
43.2726921607
 20
289.9619647039
 10
45.10492404
 20
285.9745331777
 10
47.2711207439
 20
282.0717402471
 10
49.7635262181
 20
278.2675333989
 10
52.5732072164
 20
274.5755620969
 10
55.6901129056
 20
271.0089989675
 10
59.1030897666
 20
267.5805994046
 10
62.7999188472
 20
264.3027015699
 10
66.7673530151
 20
261.1869879735
 10
70.9912063648
 20
258.2446046842
 10
75.4563542177
 20
255.4861315263
 10
80.1468076278
 20
252.9214032663
 10
85.0457804371
 20
250.5596288217
 10
90.1357339789
 20
248.4092422498
 10
95.3984478582
 20
246.4779325498
 10
100.8150832821
 20
244.7726436628
 10
106.3662501146
 20
243.2994850648
 10
112.0320739318
 20
242.0636721624
 10
117.7922779788
 20
241.0697051061
 10
123.6262371857
 20
240.3210707677
 10
129.5130703692
 20
239.8205109609
 10
135.4317030963
 20
239.5697542203
 10
141.3609487098
 20
239.5697542203
 10
147.279581437
 20
239.8205109609
 10
153.1664146204
 20
240.3210707677
 10
159.0003738274
 20
241.0697051061
 10
164.7605778743
 20
242.0636721624
 10
170.4264016916
 20
243.2994850648
 10
175.977568524
 20
244.7726436628
 10
181.3942039479
 20
246.4779325498
 10
186.6569178273
 20
248.4092422498
 10
191.746871369
 20
250.5596288217
 10
196.6458441783
 20
252.9214032663
 10
201.3362975885
 20
255.4861315263
 10
205.8014454414
 20
258.2446046842
 10
210.0252987911
 20
261.1869879735
 10
213.9927329589
 20
264.3027015699
 10
217.6895620395
 20
267.5805994046
 10
221.1025389005
 20
271.0089989675
 10
224.2194445898
 20
274.5755620969
 10
227.0291255881
 20
278.2675333989
 10
229.5215310623
 20
282.0717402471
 10
231.6877277662
 20
285.9745331777
 10
233.5199596454
 20
289.9619647039
 10
235.0116850902
 20
294.0196701062
 10
236.1575471331
 20
298.1332846654
 10
236.9534479548
 20
302.2879072202
 10
237.3965414335
 20
306.4688154233
 10
237.4852331449
 20
310.6609292997
 10
237.2192250658
 20
314.849347688
 10
236.5994485189
 20
319.0189906133
 10
235.6281312276
 20
323.1549569142
 10
234.3087526132
 20
327.242464639
 10
232.6460288931
 20
331.266851045
 10
230.6459130813
 20
335.213691808
 10
228.3155726363
 20
339.0689202321
 10
225.6633447577
 20
342.8187080396
 10
222.6987214853
 20
346.4495845807
 10
219.4323198964
 20
349.9486156476
 10
215.8758225013
 20
353.3032842649
 10
212.0419772436
 20
356.5015502942
 10
207.944500642
 20
359.5319100392
 10
203.5980554391
 20
362.3836346639
 10
199.0182021727
 20
365.0464125646
 10
194.2213432957
 20
367.5107666028
 10
189.224644946
 20
369.7678752912
 10
184.0459922422
 20
371.809632398
 10
178.7039259542
 20
373.6287065519
 10
173.2175717224
 20
375.2186604512
 10
167.6065636893
 20
376.5737720502
 10
161.8909904827
 20
377.6891537679
 10
156.0913132597
 20
378.5608716977
 10
150.2282939945
 20
379.1857071889
 10
144.3229177129
 20
379.5615144742
 10
138.3963259031
 20
379.6869822515
  0
LWPOLYLINE
  5
8A
330
1F
100
AcDbEntity
  8
0
  6
Continuous
 62
     7
370
    25
100
AcDbPolyline
 90
      113
 70
   128
 43
0.0
 10
138.3963259031
 20
389.1622134221
 10
132.0884008054
 20
389.0370436681
 10
125.8003221919
 20
388.6620112432
 10
119.5518760104
 20
388.0382486356
 10
113.3627215494
 20
387.1677227986
 10
107.2523309012
 20
386.053175546
 10
101.2399302889
 20
384.6981235517
 10
95.3444385995
 20
383.1068583501
 10
89.5844059159
 20
381.2843271268
 10
83.9779520501
 20
379.2363115323
 10
78.5427162518
 20
376.9691892636
 10
73.2958050539
 20
374.4901724828
 10
68.2537214924
 20
371.8070097936
 10
63.4323390295
 20
368.9281650556
 10
58.8468121458
 20
365.8626981748
 10
54.5115800668
 20
362.620205499
 10
50.4402848054
 20
359.2109986318
 10
46.6457264592
 20
355.6456871999
 10
43.1398557593
 20
351.9355960858
 10
39.9336921145
 20
348.0922885907
 10
37.0373310615
 20
344.1279240621
 10
34.4598772098
 20
340.0549598706
 10
32.2094516922
 20
335.886211015
 10
30.2931251098
 20
331.6347905172
 10
28.7169324328
 20
327.314109422
 10
27.4858357479
 20
322.937697984
 10
26.6037019063
 20
318.5193844808
 10
26.0733099748
 20
314.0730567945
 10
25.8963288833
 20
309.612662412
 10
26.0733099748
 20
305.1523276342
 10
26.6037019063
 20
300.7059403432
 10
27.4858357479
 20
296.2876268399
 10
28.7169324328
 20
291.9112750066
 10
30.2931251098
 20
287.5905343068
 10
32.2094516922
 20
283.3391734136
 10
34.4598772098
 20
279.170424558
 10
37.0373310615
 20
275.0974603666
 10
39.9336921145
 20
271.1330958379
 10
43.1398557593
 20
267.2897883428
 10
46.6457264592
 20
263.5796376241
 10
50.4402848054
 20
260.0143857968
 10
54.5115800668
 20
256.6051491273
 10
58.8468121458
 20
253.3626862538
 10
63.4323390295
 20
250.2972193731
 10
68.2537214924
 20
247.418374635
 10
73.2958050539
 20
244.7352119458
 10
78.5427162518
 20
242.256195165
 10
83.9779520501
 20
239.9891026986
 10
89.5844059159
 20
237.9410573018
 10
95.3444385995
 20
236.1185260785
 10
101.2399302889
 20
234.5272310746
 10
107.2523309012
 20
233.1721790803
 10
113.3627215494
 20
232.0576318277
 10
119.5518760104
 20
231.187135793
 10
125.8003221919
 20
230.5633731855
 10
132.0884008054
 20
230.1883109582
 10
138.3963259031
 20
230.0631710065
 10
144.7042510007
 20
230.1883109582
 10
150.9923296143
 20
230.5633731855
 10
157.2407757957
 20
231.187135793
 10
163.4299302567
 20
232.0576318277
 10
169.540320905
 20
233.1721790803
 10
175.5527215172
 20
234.5272310746
 10
181.4482132067
 20
236.1185260785
 10
187.2082458903
 20
237.9410573018
 10
192.814699756
 20
239.9891026986
 10
198.2499355544
 20
242.256195165
 10
203.4968467523
 20
244.7352119458
 10
208.5389303137
 20
247.418374635
 10
213.3603127767
 20
250.2972193731
 10
217.9458396603
 20
253.3626862538
 10
222.2810717393
 20
256.6051491273
 10
226.3523670007
 20
260.0143857968
 10
230.146925347
 20
263.5796376241
 10
233.6527960469
 20
267.2897883428
 10
236.8589596917
 20
271.1330958379
 10
239.7553207447
 20
275.0974603666
 10
242.3327745964
 20
279.170424558
 10
244.5832001139
 20
283.3391734136
 10
246.4995266963
 20
287.5905343068
 10
248.0757193734
 20
291.9112750066
 10
249.3068160583
 20
296.2876268399
 10
250.1889498998
 20
300.7059403432
 10
250.7193418313
 20
305.1523276342
 10
250.8963229228
 20
309.612662412
 10
250.7193418313
 20
314.0730567945
 10
250.1889498998
 20
318.5193844808
 10
249.3068160583
 20
322.937697984
 10
248.0757193734
 20
327.314109422
 10
246.4995266963
 20
331.6347905172
 10
244.5832001139
 20
335.886211015
 10
242.3327745964
 20
340.0549598706
 10
239.7553207447
 20
344.1279240621
 10
236.8589596917
 20
348.0922885907
 10
233.6527960469
 20
351.9355960858
 10
230.146925347
 20
355.6456871999
 10
226.3523670007
 20
359.2109986318
 10
222.2810717393
 20
362.620205499
 10
217.9458396603
 20
365.8626981748
 10
213.3603127767
 20
368.9281650556
 10
208.5389303137
 20
371.8070097936
 10
203.4968467523
 20
374.4901724828
 10
198.2499355544
 20
376.9691892636
 10
192.814699756
 20
379.2363115323
 10
187.2082458903
 20
381.2843271268
 10
181.4482132067
 20
383.1068583501
 10
175.5527215172
 20
384.6981235517
 10
169.540320905
 20
386.053175546
 10
163.4299302567
 20
387.1677227986
 10
157.2407757957
 20
388.0382486356
 10
150.9923296143
 20
388.6620112432
 10
144.7042510007
 20
389.0370436681
 10
138.3963259031
 20
389.1622134221
  0
ELLIPSE
  5
8B
330
1F
100
AcDbEntity
  8
0
  6
Continuous
 62
     7
370
    25
100
AcDbEllipse
 10
138.3963259031
 20
-26.2630352008
 30
0.0
 11
112.5
 21
0.0
 31
0.0
210
0.0
220
0.0
230
1.0
 40
0.4142135624
 41
3.141592653589793
 42
6.283185307179586
  0
LINE
  5
8C
330
1F
100
AcDbEntity
  8
0
  6
Continuous
 62
     7
370
    25
100
AcDbLine
 10
25.8963288833
 20
-243.2630352008
 30
0.0
 11
250.8963229228
 21
-243.2630352008
 31
0.0
  0
LINE
  5
8D
330
1F
100
AcDbEntity
  8
0
  6
Continuous
 62
     7
370
    25
100
AcDbLine
 10
25.8963288833
 20
448.7369366658
 30
0.0
 11
250.8963229228
 21
448.7369366658
 31
0.0
  0
LINE
  5
8E
330
1F
100
AcDbEntity
  8
0
  6
Continuous
 62
     7
370
    25
100
AcDbLine
 10
250.8963229228
 20
773.445998858
 30
0.0
 11
250.8963229228
 21
1109.3217186437
 31
0.0
  0
LINE
  5
8F
330
1F
100
AcDbEntity
  8
0
  6
Continuous
 62
     7
370
    25
100
AcDbLine
 10
25.8963288833
 20
1109.3217186437
 30
0.0
 11
25.8963288833
 21
773.445998858
 31
0.0
  0
CIRCLE
  5
90
330
1F
100
AcDbEntity
  8
0
  6
Continuous
 62
     7
370
    25
100
AcDbCircle
 10
138.3963259031
 20
1109.3217186437
 30
0.0
 40
99.10000000000002
  0
CIRCLE
  5
91
330
1F
100
AcDbEntity
  8
0
  6
Continuous
 62
     7
370
    25
100
AcDbCircle
 10
138.3963259031
 20
1109.3217186437
 30
0.0
 40
112.5
  0
LWPOLYLINE
  5
92
330
1F
100
AcDbEntity
  8
0
  6
Continuous
 62
     7
370
    25
100
AcDbPolyline
 90
      113
 70
   128
 43
0.0
 10
138.3963259031
 20
852.9955200658
 10
132.0884008054
 20
852.8703503118
 10
125.8003221919
 20
852.4953178868
 10
119.5518760104
 20
851.8715552792
 10
113.3627215494
 20
851.0010294423
 10
107.2523309012
 20
849.886511992
 10
101.2399302889
 20
848.5314599976
 10
95.3444385995
 20
846.9401649938
 10
89.5844059159
 20
845.1176337705
 10
83.9779520501
 20
843.0695883737
 10
78.5427162518
 20
840.8024959073
 10
73.2958050539
 20
838.3234791264
 10
68.2537214924
 20
835.6403164372
 10
63.4323390295
 20
832.7614716992
 10
58.8468121458
 20
829.6960048184
 10
54.5115800668
 20
826.453541945
 10
50.4402848054
 20
823.0443052754
 10
46.6457264592
 20
819.4790236459
 10
43.1398557593
 20
815.7689027295
 10
39.9336921145
 20
811.9255952344
 10
37.0373310615
 20
807.9612307057
 10
34.4598772098
 20
803.8882665143
 10
32.2094516922
 20
799.719547461
 10
30.2931251098
 20
795.4681269631
 10
28.7169324328
 20
791.1474160657
 10
27.4858357479
 20
786.77103443
 10
26.6037019063
 20
782.3527209268
 10
26.0733099748
 20
777.9063634381
 10
25.8963288833
 20
773.445998858
 10
26.0733099748
 20
768.9856342778
 10
26.6037019063
 20
764.5392767892
 10
27.4858357479
 20
760.1209632859
 10
28.7169324328
 20
755.7445518479
 10
30.2931251098
 20
751.4238707528
 10
32.2094516922
 20
747.1724502549
 10
34.4598772098
 20
743.0037312016
 10
37.0373310615
 20
738.9307670102
 10
39.9336921145
 20
734.9664024816
 10
43.1398557593
 20
731.1230949864
 10
46.6457264592
 20
727.4129740701
 10
50.4402848054
 20
723.8476924405
 10
54.5115800668
 20
720.438455771
 10
58.8468121458
 20
717.1959928975
 10
63.4323390295
 20
714.1305260167
 10
68.2537214924
 20
711.2516812787
 10
73.2958050539
 20
708.5685185895
 10
78.5427162518
 20
706.0895018086
 10
83.9779520501
 20
703.8224093423
 10
89.5844059159
 20
701.7743639455
 10
95.3444385995
 20
699.9518327222
 10
101.2399302889
 20
698.3605377183
 10
107.2523309012
 20
697.005485724
 10
113.3627215494
 20
695.8909682736
 10
119.5518760104
 20
695.0204424367
 10
125.8003221919
 20
694.3966798291
 10
132.0884008054
 20
694.0216176019
 10
138.3963259031
 20
693.8964776502
 10
144.7042510007
 20
694.0216176019
 10
150.9923296143
 20
694.3966798291
 10
157.2407757957
 20
695.0204424367
 10
163.4299302567
 20
695.8909682736
 10
169.540320905
 20
697.005485724
 10
175.5527215172
 20
698.3605377183
 10
181.4482132067
 20
699.9518327222
 10
187.2082458903
 20
701.7743639455
 10
192.814699756
 20
703.8224093423
 10
198.2499355544
 20
706.0895018086
 10
203.4968467523
 20
708.5685185895
 10
208.5389303137
 20
711.2516812787
 10
213.3603127767
 20
714.1305260167
 10
217.9458396603
 20
717.1959928975
 10
222.2810717393
 20
720.438455771
 10
226.3523670007
 20
723.8476924405
 10
230.146925347
 20
727.4129740701
 10
233.6527960469
 20
731.1230949864
 10
236.8589596917
 20
734.9664024816
 10
239.7553207447
 20
738.9307670102
 10
242.3327745964
 20
743.0037312016
 10
244.5832001139
 20
747.1724502549
 10
246.4995266963
 20
751.4238707528
 10
248.0757193734
 20
755.7445518479
 10
249.3068160583
 20
760.1209632859
 10
250.1889498998
 20
764.5392767892
 10
250.7193418313
 20
768.9856342778
 10
250.8963229228
 20
773.445998858
 10
250.7193418313
 20
777.9063634381
 10
250.1889498998
 20
782.3527209268
 10
249.3068160583
 20
786.77103443
 10
248.0757193734
 20
791.1474160657
 10
246.4995266963
 20
795.4681269631
 10
244.5832001139
 20
799.719547461
 10
242.3327745964
 20
803.8882665143
 10
239.7553207447
 20
807.9612307057
 10
236.8589596917
 20
811.9255952344
 10
233.6527960469
 20
815.7689027295
 10
230.146925347
 20
819.4790236459
 10
226.3523670007
 20
823.0443052754
 10
222.2810717393
 20
826.453541945
 10
217.9458396603
 20
829.6960048184
 10
213.3603127767
 20
832.7614716992
 10
208.5389303137
 20
835.6403164372
 10
203.4968467523
 20
838.3234791264
 10
198.2499355544
 20
840.8024959073
 10
192.814699756
 20
843.0695883737
 10
187.2082458903
 20
845.1176337705
 10
181.4482132067
 20
846.9401649938
 10
175.5527215172
 20
848.5314599976
 10
169.540320905
 20
849.886511992
 10
163.4299302567
 20
851.0010294423
 10
157.2407757957
 20
851.8715552792
 10
150.9923296143
 20
852.4953178868
 10
144.7042510007
 20
852.8703503118
 10
138.3963259031
 20
852.9955200658
  0
LWPOLYLINE
  5
93
330
1F
100
AcDbEntity
  8
0
  6
Continuous
 62
     7
370
    25
100
AcDbPolyline
 90
      106
 70
   128
 43
0.0
 10
138.3963259031
 20
843.5202888951
 10
132.4697340932
 20
843.3948509202
 10
126.5643578117
 20
843.0190436349
 10
120.7013385464
 20
842.3941485391
 10
114.9016613234
 20
841.5224604115
 10
109.1860881169
 20
840.4070786939
 10
103.5750800837
 20
839.0519968972
 10
98.0887258519
 20
837.4620429978
 10
92.7466595639
 20
835.6429390416
 10
87.5680068602
 20
833.6011819348
 10
82.5713085104
 20
831.3440732465
 10
77.7744496335
 20
828.8797192082
 10
73.194596367
 20
826.2169413075
 10
68.8481511642
 20
823.3652464852
 10
64.7506745626
 20
820.3348569379
 10
60.9168293048
 20
817.1365909085
 10
57.3603319098
 20
813.7819520936
 10
54.0939303209
 20
810.2829210267
 10
51.1293070485
 20
806.6520146832
 10
48.4770791699
 20
802.9022268758
 10
46.1467387248
 20
799.0469984517
 10
44.146622913
 20
795.1001278863
 10
42.483899193
 20
791.0757712827
 10
41.1645205785
 20
786.9882635579
 10
40.1932032873
 20
782.8522972569
 10
39.5734267403
 20
778.6826543317
 10
39.3074186613
 20
774.4942657456
 10
39.3961103727
 20
770.302122067
 10
39.8392038514
 20
766.1212436662
 10
40.635104673
 20
761.9665615067
 10
41.780966716
 20
757.8530065522
 10
43.2726921607
 20
753.7952415452
 10
45.10492404
 20
749.8078398213
 10
47.2711207439
 20
745.9050468907
 10
49.7635262181
 20
742.1008400426
 10
52.5732072164
 20
738.4088687406
 10
55.6901129056
 20
734.8422758088
 10
59.1030897666
 20
731.4139060483
 10
62.7999188472
 20
728.1360082135
 10
66.7673530151
 20
725.0202648148
 10
70.9912063648
 20
722.0779113278
 10
75.4563542177
 20
719.31943817
 10
80.1468076278
 20
716.7547099099
 10
85.0457804371
 20
714.3929354653
 10
90.1357339789
 20
712.2425488934
 10
95.3984478582
 20
710.3112391934
 10
100.8150832821
 20
708.6059503064
 10
106.3662501146
 20
707.1327917085
 10
112.0320739318
 20
705.896978806
 10
117.7922779788
 20
704.9030117497
 10
123.6262371857
 20
704.1543774114
 10
129.5130703692
 20
703.6538176045
 10
135.4317030963
 20
703.4030906663
 10
141.3609487098
 20
703.4030906663
 10
147.279581437
 20
703.6538176045
 10
153.1664146204
 20
704.1543774114
 10
159.0003738274
 20
704.9030117497
 10
164.7605778743
 20
705.896978806
 10
170.4264016916
 20
707.1327917085
 10
175.977568524
 20
708.6059503064
 10
181.3942039479
 20
710.3112391934
 10
186.6569178273
 20
712.2425488934
 10
191.746871369
 20
714.3929354653
 10
196.6458441783
 20
716.7547099099
 10
201.3362975885
 20
719.31943817
 10
205.8014454414
 20
722.0779113278
 10
210.0252987911
 20
725.0202648148
 10
213.9927329589
 20
728.1360082135
 10
217.6895620395
 20
731.4139060483
 10
221.1025389005
 20
734.8422758088
 10
224.2194445898
 20
738.4088687406
 10
227.0291255881
 20
742.1008400426
 10
229.5215310623
 20
745.9050468907
 10
231.6877277662
 20
749.8078398213
 10
233.5199596454
 20
753.7952415452
 10
235.0116850902
 20
757.8530065522
 10
236.1575471331
 20
761.9665615067
 10
236.9534479548
 20
766.1212436662
 10
237.3965414335
 20
770.302122067
 10
237.4852331449
 20
774.4942657456
 10
237.2192250658
 20
778.6826543317
 10
236.5994485189
 20
782.8522972569
 10
235.6281312276
 20
786.9882635579
 10
234.3087526132
 20
791.0757712827
 10
232.6460288931
 20
795.1001278863
 10
230.6459130813
 20
799.0469984517
 10
228.3155726363
 20
802.9022268758
 10
225.6633447577
 20
806.6520146832
 10
222.6987214853
 20
810.2829210267
 10
219.4323198964
 20
813.7819520936
 10
215.8758225013
 20
817.1365909085
 10
212.0419772436
 20
820.3348569379
 10
207.944500642
 20
823.3652464852
 10
203.5980554391
 20
826.2169413075
 10
199.0182021727
 20
828.8797192082
 10
194.2213432957
 20
831.3440732465
 10
189.224644946
 20
833.6011819348
 10
184.0459922422
 20
835.6429390416
 10
178.7039259542
 20
837.4620429978
 10
173.2175717224
 20
839.0519968972
 10
167.6065636893
 20
840.4070786939
 10
161.8909904827
 20
841.5224604115
 10
156.0913132597
 20
842.3941485391
 10
150.2282939945
 20
843.0190436349
 10
144.3229177129
 20
843.3948509202
 10
138.3963259031
 20
843.5202888951
  0
INSERT
  5
9F
330
1F
100
AcDbEntity
  8
FORMAT
100
AcDbBlockReference
  2
SW_CENTERMARKSYMBOL_0
 10
138.3963259031
 20
1109.3217186437
 30
0.0
  0
LINE
  5
A0
330
1F
100
AcDbEntity
  8
0
  6
Continuous
 62
     7
370
    25
100
AcDbLine
 10
25.8963288833
 20
-595.4867060207
 30
0.0
 11
25.8963288833
 21
-931.3624258064
 31
0.0
  0
LINE
  5
A1
330
1F
100
AcDbEntity
  8
0
  6
Continuous
 62
     7
370
    25
100
AcDbLine
 10
250.8963229228
 20
-931.3624258064
 30
0.0
 11
250.8963229228
 21
-595.4867060207
 31
0.0
  0
CIRCLE
  5
A2
330
1F
100
AcDbEntity
  8
0
  6
Continuous
 62
     7
370
    25
100
AcDbCircle
 10
138.3963259031
 20
-931.3624258064
 30
0.0
 40
99.10000000000002
  0
CIRCLE
  5
A3
330
1F
100
AcDbEntity
  8
0
  6
Continuous
 62
     7
370
    25
100
AcDbCircle
 10
138.3963259031
 20
-931.3624258064
 30
0.0
 40
112.5
  0
LWPOLYLINE
  5
A4
330
1F
100
AcDbEntity
  8
0
  6
Continuous
 62
     7
370
    25
100
AcDbPolyline
 90
       57
 70
   128
 43
0.0
 10
25.8963288833
 20
-595.4867060207
 10
26.0733099748
 20
-591.0263414406
 10
26.6037019063
 20
-586.5799839519
 10
27.4858357479
 20
-582.1616704487
 10
28.7169324328
 20
-577.7852590107
 10
30.2931251098
 20
-573.4645779156
 10
32.2094516922
 20
-569.2131574177
 10
34.4598772098
 20
-565.0444383644
 10
37.0373310615
 20
-560.971474173
 10
39.9336921145
 20
-557.0071096443
 10
43.1398557593
 20
-553.1638021492
 10
46.6457264592
 20
-549.4536812328
 10
50.4402848054
 20
-545.8883996032
 10
54.5115800668
 20
-542.4791629337
 10
58.8468121458
 20
-539.2367000603
 10
63.4323390295
 20
-536.1712331795
 10
68.2537214924
 20
-533.2923884414
 10
73.2958050539
 20
-530.6092257522
 10
78.5427162518
 20
-528.1302089714
 10
83.9779520501
 20
-525.863116505
 10
89.5844059159
 20
-523.8150711082
 10
95.3444385995
 20
-521.9925398849
 10
101.2399302889
 20
-520.401244881
 10
107.2523309012
 20
-519.0461928867
 10
113.3627215494
 20
-517.9316754364
 10
119.5518760104
 20
-517.0611495994
 10
125.8003221919
 20
-516.4373869919
 10
132.0884008054
 20
-516.0623247646
 10
138.3963259031
 20
-515.9371848129
 10
144.7042510007
 20
-516.0623247646
 10
150.9923296143
 20
-516.4373869919
 10
157.2407757957
 20
-517.0611495994
 10
163.4299302567
 20
-517.9316754364
 10
169.540320905
 20
-519.0461928867
 10
175.5527215172
 20
-520.401244881
 10
181.4482132067
 20
-521.9925398849
 10
187.2082458903
 20
-523.8150711082
 10
192.814699756
 20
-525.863116505
 10
198.2499355544
 20
-528.1302089714
 10
203.4968467523
 20
-530.6092257522
 10
208.5389303137
 20
-533.2923884414
 10
213.3603127767
 20
-536.1712331795
 10
217.9458396603
 20
-539.2367000603
 10
222.2810717393
 20
-542.4791629337
 10
226.3523670007
 20
-545.8883996032
 10
230.146925347
 20
-549.4536812328
 10
233.6527960469
 20
-553.1638021492
 10
236.8589596917
 20
-557.0071096443
 10
239.7553207447
 20
-560.971474173
 10
242.3327745964
 20
-565.0444383644
 10
244.5832001139
 20
-569.2131574177
 10
246.4995266963
 20
-573.4645779156
 10
248.0757193734
 20
-577.7852590107
 10
249.3068160583
 20
-582.1616704487
 10
250.1889498998
 20
-586.5799839519
 10
250.7193418313
 20
-591.0263414406
 10
250.8963229228
 20
-595.4867060207
  0
INSERT
  5
B0
330
1F
100
AcDbEntity
  8
FORMAT
100
AcDbBlockReference
  2
SW_CENTERMARKSYMBOL_1
 10
138.3963259031
 20
-931.3624258064
 30
0.0
  0
LINE
  5
B1
330
1F
100
AcDbEntity
  8
0
  6
Continuous
 62
     7
370
    25
100
AcDbLine
 10
922.7116677374
 20
389.1622134221
 30
0.0
 11
778.8854661793
 21
245.3359969628
 31
0.0
  0
LINE
  5
B2
330
1F
100
AcDbEntity
  8
0
  6
Continuous
 62
     7
370
    25
100
AcDbLine
 10
778.8854661793
 20
-72.8620580661
 30
0.0
 11
1081.810710153
 21
230.0631710065
 31
0.0
  0
LINE
  5
B3
330
1F
100
AcDbEntity
  8
0
  6
Continuous
 62
     7
370
    25
100
AcDbLine
 10
778.8854661793
 20
245.3359969628
 30
0.0
 11
778.8854661793
 21
448.7369366658
 31
0.0
  0
LINE
  5
B4
330
1F
100
AcDbEntity
  8
0
  6
Continuous
 62
     7
370
    25
100
AcDbLine
 10
778.8854661793
 20
-243.2630352008
 30
0.0
 11
778.8854661793
 21
-72.8620580661
 31
0.0
  0
LINE
  5
B5
330
1F
100
AcDbEntity
  8
0
  6
Continuous
 62
     7
370
    25
100
AcDbLine
 10
553.8854721397
 20
448.7369366658
 30
0.0
 11
553.8854721397
 21
-243.2630352008
 31
0.0
  0
LWPOLYLINE
  5
B6
330
1F
100
AcDbEntity
  8
0
  6
Continuous
 62
     7
370
    25
100
AcDbPolyline
 90
       30
 70
   128
 43
0.0
 10
778.8854661793
 20
-72.8620580661
 10
778.7204805225
 20
-72.7937213408
 10
778.2259929389
 20
-72.5888899791
 10
777.4034562916
 20
-72.2481898295
 10
776.2552845687
 20
-71.7726043689
 10
774.7848454326
 20
-71.1635194051
 10
772.9964527696
 20
-70.4227528798
 10
770.8953517884
 20
-69.5524505603
 10
768.4877041191
 20
-68.555160545
 10
765.7805729121
 20
-67.433833264
 10
762.7819004864
 20
-66.1917469727
 10
759.500478527
 20
-64.8325375544
 10
755.9459406346
 20
-63.3601985204
 10
752.128702721
 20
-61.7790512072
 10
748.0599630088
 20
-60.0937149751
 10
743.751657328
 20
-58.3091668116
 10
739.216429314
 20
-56.4306072223
 10
734.4675708026
 20
-54.4635645377
 10
729.5190143794
 20
-52.4138055074
 10
724.3852775007
 20
-50.2873352992
 10
719.0814177901
 20
-48.0904124009
 10
713.6229920596
 20
-45.829459213
 10
708.0260116071
 20
-43.5111067521
 10
702.3068900615
 20
-41.1421797501
 10
696.4824079931
 20
-38.7295923459
 10
690.5696439952
 20
-36.2804523932
 10
684.5859430194
 20
-33.8019124495
 10
678.5488586336
 20
-31.3012740838
 10
672.4760962114
 20
-28.7858537661
 10
666.3854691595
 20
-26.2630424725
  0
LWPOLYLINE
  5
B7
330
1F
100
AcDbEntity
  8
0
  6
Continuous
 62
     7
370
    25
100
AcDbPolyline
 90
       47
 70
   128
 43
0.0
 10
666.3854691595
 20
-26.2630424725
 10
670.2685348153
 20
-16.8884835469
 10
674.1469727293
 20
-7.5251004922
 10
678.0161616787
 20
1.8159457219
 10
681.8714897543
 20
11.1235388292
 10
685.7083618104
 20
20.3865476621
 10
689.5222078472
 20
29.5940049661
 10
693.3084811479
 20
38.7348540795
 10
697.0626703858
 20
47.7982767594
 10
700.7802996248
 20
56.7734249604
 10
704.4569413573
 20
65.6496294511
 10
708.0882127792
 20
74.4162806047
 10
711.6697851032
 20
83.0629774106
 10
715.1973891467
 20
91.5793784631
 10
718.6668265074
 20
99.9553211702
 10
722.073958388
 20
108.1808813584
 10
725.4147242218
 20
116.2461944593
 10
728.685145399
 20
124.1416939271
 10
731.8813178152
 20
131.8579324258
 10
734.9994453996
 20
139.3857606424
 10
738.035802862
 20
146.7161782754
 10
740.9867692202
 20
153.8404234422
 10
743.8488352507
 20
160.7500620855
 10
746.6185811371
 20
167.4368389619
 10
749.2927137226
 20
173.8927670491
 10
751.8680516094
 20
180.110157348
 10
754.3415102571
 20
186.0816188825
 10
756.710154137
 20
191.8000288976
 10
758.9711520284
 20
197.2585924638
 10
761.1218217224
 20
202.4507530702
 10
763.159585318
 20
207.370341636
 10
765.0820213765
 20
212.0115169061
 10
766.8868425697
 20
216.3687356485
 10
768.5718882293
 20
220.436812259
 10
770.1351615995
 20
224.2108889592
 10
771.5748000354
 20
227.6864655984
 10
772.8890750021
 20
230.8593996537
 10
774.0764293283
 20
233.7259360326
 10
775.1354399532
 20
236.2826176656
 10
776.0648626298
 20
238.5264345182
 10
776.8635723203
 20
240.4547043813
 10
777.5306228012
 20
242.0651026738
 10
778.0652168602
 20
243.3557220472
 10
778.466721198
 20
244.3250425828
 10
778.7346589774
 20
244.9719019902
 10
778.8687098235
 20
245.295525409
 10
778.8854661793
 20
245.3359969628
  0
LWPOLYLINE
  5
B8
330
1F
100
AcDbEntity
  8
0
  6
Continuous
 62
     7
370
    25
100
AcDbPolyline
 90
       58
 70
   128
 43
0.0
 10
922.7116677374
 20
389.1622134221
 10
922.8368374914
 20
389.0370436681
 10
923.2118699163
 20
388.6620112432
 10
923.8356325239
 20
388.0382486356
 10
924.7061583608
 20
387.1677227986
 10
925.8206758112
 20
386.053175546
 10
927.1757278055
 20
384.6981235517
 10
928.7670228094
 20
383.1068583501
 10
930.5895540327
 20
381.2843271268
 10
932.6375994295
 20
379.2363115323
 10
934.9046918958
 20
376.9691892636
 10
937.3837086767
 20
374.4901724828
 10
940.0668713659
 20
371.8070097936
 10
942.9457161039
 20
368.9281650556
 10
946.0111829847
 20
365.8626981748
 10
949.2536458582
 20
362.620205499
 10
952.6628825277
 20
359.2109986318
 10
956.2281641573
 20
355.6456871999
 10
959.9382850736
 20
351.9355960858
 10
963.7815925688
 20
348.0922885907
 10
967.7459570974
 20
344.1279240621
 10
971.8189212888
 20
340.0549598706
 10
975.9876403421
 20
335.886211015
 10
980.23906084
 20
331.6347905172
 10
984.5597717375
 20
327.314109422
 10
988.9361533731
 20
322.937697984
 10
993.3544668764
 20
318.5193844808
 10
997.800824365
 20
314.0730567945
 10
1002.2611889452
 20
309.612662412
 10
1006.7215535253
 20
305.1523276342
 10
1011.167911014
 20
300.7059403432
 10
1015.5862245172
 20
296.2876268399
 10
1019.9626359552
 20
291.9112750066
 10
1024.2833170503
 20
287.5905343068
 10
1028.5347375482
 20
283.3391734136
 10
1032.7034566015
 20
279.170424558
 10
1036.7764207929
 20
275.0974603666
 10
1040.7407853216
 20
271.1330958379
 10
1044.5840928167
 20
267.2897883428
 10
1048.2942137331
 20
263.5796376241
 10
1051.8594953626
 20
260.0143857968
 10
1055.2687320322
 20
256.6051491273
 10
1058.5111949056
 20
253.3626862538
 10
1061.5766617864
 20
250.2972193731
 10
1064.4555065244
 20
247.418374635
 10
1067.1386692137
 20
244.7352119458
 10
1069.6176859945
 20
242.256195165
 10
1071.8847784609
 20
239.9891026986
 10
1073.9328238577
 20
237.9410573018
 10
1075.755355081
 20
236.1185260785
 10
1077.3466500849
 20
234.5272310746
 10
1078.7017020792
 20
233.1721790803
 10
1079.8162195295
 20
232.0576318277
 10
1080.6867453665
 20
231.187135793
 10
1081.310507974
 20
230.5633731855
 10
1081.6855702013
 20
230.1883109582
 10
1081.810710153
 20
230.0631710065
 10
1081.810710153
 20
230.0631710065
  0
LINE
  5
B9
330
1F
100
AcDbEntity
  8
0
  6
Continuous
 62
     7
370
    25
100
AcDbLine
 10
666.3854691595
 20
-243.2630352008
 30
0.0
 11
778.8854661793
 21
-243.2630352008
 31
0.0
  0
LINE
  5
BA
330
1F
100
AcDbEntity
  8
0
  6
Continuous
 62
     7
370
    25
100
AcDbLine
 10
553.8854721397
 20
-243.2630352008
 30
0.0
 11
666.3854691595
 21
-243.2630352008
 31
0.0
  0
LINE
  5
BB
330
1F
100
AcDbEntity
  8
0
  6
Continuous
 62
     7
370
    25
100
AcDbLine
 10
666.3854691595
 20
448.7369366658
 30
0.0
 11
778.8854661793
 21
448.7369366658
 31
0.0
  0
LINE
  5
BC
330
1F
100
AcDbEntity
  8
0
  6
Continuous
 62
     7
370
    25
100
AcDbLine
 10
553.8854721397
 20
448.7369366658
 30
0.0
 11
666.3854691595
 21
448.7369366658
 31
0.0
  0
LINE
  5
BD
330
1F
100
AcDbEntity
  8
0
  6
Continuous
 62
     7
370
    25
100
AcDbLine
 10
-311.3039883567
 20
-243.2630352008
 30
0.0
 11
-311.3039883567
 21
448.7369366658
 31
0.0
  0
LINE
  5
BE
330
1F
100
AcDbEntity
  8
0
  6
Continuous
 62
     7
370
    25
100
AcDbLine
 10
-536.3039823963
 20
-72.8620580661
 30
0.0
 11
-536.3039823963
 21
-243.2630352008
 31
0.0
  0
LINE
  5
BF
330
1F
100
AcDbEntity
  8
0
  6
Continuous
 62
     7
370
    25
100
AcDbLine
 10
-536.3039823963
 20
448.7369366658
 30
0.0
 11
-536.3039823963
 21
245.3359969628
 31
0.0
  0
LINE
  5
C0
330
1F
100
AcDbEntity
  8
0
  6
Continuous
 62
     7
370
    25
100
AcDbLine
 10
-839.22922637
 20
230.0631710065
 30
0.0
 11
-536.3039823963
 21
-72.8620580661
 31
0.0
  0
LINE
  5
C1
330
1F
100
AcDbEntity
  8
0
  6
Continuous
 62
     7
370
    25
100
AcDbLine
 10
-536.3039823963
 20
245.3359969628
 30
0.0
 11
-680.1301839544
 21
389.1622134221
 31
0.0
  0
LINE
  5
C2
330
1F
100
AcDbEntity
  8
0
  6
Continuous
 62
     7
370
    25
100
AcDbLine
 10
-536.3039823963
 20
-243.2630352008
 30
0.0
 11
-311.3039883567
 21
-243.2630352008
 31
0.0
  0
LINE
  5
C3
330
1F
100
AcDbEntity
  8
0
  6
Continuous
 62
     7
370
    25
100
AcDbLine
 10
-536.3039823963
 20
448.7369366658
 30
0.0
 11
-311.3039883567
 21
448.7369366658
 31
0.0
  0
LWPOLYLINE
  5
C4
330
1F
100
AcDbEntity
  8
0
  6
Continuous
 62
     7
370
    25
100
AcDbPolyline
 90
       47
 70
   128
 43
0.0
 10
-536.3039823963
 20
245.3359969628
 10
-536.2872260405
 20
245.295525409
 10
-536.1531751944
 20
244.9719019902
 10
-535.885237415
 20
244.3250425828
 10
-535.4837330772
 20
243.3557220472
 10
-534.9491390182
 20
242.0651026738
 10
-534.2820885374
 20
240.4547043813
 10
-533.4833788468
 20
238.5264345182
 10
-532.5539561702
 20
236.2826176656
 10
-531.4949455454
 20
233.7259360326
 10
-530.3075912191
 20
230.8593996537
 10
-528.9933162524
 20
227.6864655984
 10
-527.5536778165
 20
224.2108889592
 10
-525.9904044463
 20
220.436812259
 10
-524.3053587867
 20
216.3687356485
 10
-522.5005375935
 20
212.0115169061
 10
-520.578101535
 20
207.370341636
 10
-518.5403379394
 20
202.4507530702
 10
-516.3896682455
 20
197.2585924638
 10
-514.128670354
 20
191.8000288976
 10
-511.7600264742
 20
186.0816188825
 10
-509.2865678264
 20
180.110157348
 10
-506.7112299396
 20
173.8927670491
 10
-504.0370973541
 20
167.4368389619
 10
-501.2673514678
 20
160.7500620855
 10
-498.4052854373
 20
153.8404234422
 10
-495.4543190791
 20
146.7161782754
 10
-492.4179616167
 20
139.3857606424
 10
-489.2998340322
 20
131.8579324258
 10
-486.103661616
 20
124.1416939271
 10
-482.8332404389
 20
116.2461944593
 10
-479.492474605
 20
108.1808813584
 10
-476.0853427245
 20
99.9553211702
 10
-472.6159053637
 20
91.5793784631
 10
-469.0883013202
 20
83.0629774106
 10
-465.5067289962
 20
74.4162806047
 10
-461.8754575743
 20
65.6496294511
 10
-458.1988158418
 20
56.7734249604
 10
-454.4811866029
 20
47.7982767594
 10
-450.7269973649
 20
38.7348540795
 10
-446.9407240643
 20
29.5940049661
 10
-443.1268780275
 20
20.3865476621
 10
-439.2900059713
 20
11.1235388292
 10
-435.4346778958
 20
1.8159457219
 10
-431.5654889463
 20
-7.5251004922
 10
-427.6870510323
 20
-16.8884835469
 10
-423.8039853765
 20
-26.2630424725
  0
LWPOLYLINE
  5
C5
330
1F
100
AcDbEntity
  8
0
  6
Continuous
 62
     7
370
    25
100
AcDbPolyline
 90
       30
 70
   128
 43
0.0
 10
-423.8039853765
 20
-26.2630424725
 10
-429.8946124284
 20
-28.7858537661
 10
-435.9673748507
 20
-31.3012740838
 10
-442.0044592364
 20
-33.8019124495
 10
-447.9881602122
 20
-36.2804523932
 10
-453.9009242101
 20
-38.7295923459
 10
-459.7254062785
 20
-41.1421797501
 10
-465.4445278241
 20
-43.5111067521
 10
-471.0415082766
 20
-45.829459213
 10
-476.4999340071
 20
-48.0904124009
 10
-481.8037937178
 20
-50.2873352992
 10
-486.9375305964
 20
-52.4138055074
 10
-491.8860870196
 20
-54.4635645377
 10
-496.634945531
 20
-56.4306072223
 10
-501.170173545
 20
-58.3091668116
 10
-505.4784792258
 20
-60.0937149751
 10
-509.547218938
 20
-61.7790512072
 10
-513.3644568516
 20
-63.3601985204
 10
-516.918994744
 20
-64.8325375544
 10
-520.2004167034
 20
-66.1917469727
 10
-523.1990891291
 20
-67.433833264
 10
-525.9062203361
 20
-68.555160545
 10
-528.3138680054
 20
-69.5524505603
 10
-530.4149689867
 20
-70.4227528798
 10
-532.2033616497
 20
-71.1635194051
 10
-533.6738007857
 20
-71.7726043689
 10
-534.8219725086
 20
-72.2481898295
 10
-535.6445091559
 20
-72.5888899791
 10
-536.1389967395
 20
-72.7937213408
 10
-536.3039823963
 20
-72.8620580661
  0
LWPOLYLINE
  5
C6
330
1F
100
AcDbEntity
  8
0
  6
Continuous
 62
     7
370
    25
100
AcDbPolyline
 90
       58
 70
   128
 43
0.0
 10
-839.22922637
 20
230.0631710065
 10
-839.1040864183
 20
230.1883109582
 10
-838.7290241911
 20
230.5633731855
 10
-838.1052615835
 20
231.187135793
 10
-837.2347357465
 20
232.0576318277
 10
-836.1202182962
 20
233.1721790803
 10
-834.7651663019
 20
234.5272310746
 10
-833.173871298
 20
236.1185260785
 10
-831.3513400747
 20
237.9410573018
 10
-829.3032946779
 20
239.9891026986
 10
-827.0362022115
 20
242.256195165
 10
-824.5571854307
 20
244.7352119458
 10
-821.8740227415
 20
247.418374635
 10
-818.9951780035
 20
250.2972193731
 10
-815.9297111227
 20
253.3626862538
 10
-812.6872482492
 20
256.6051491273
 10
-809.2780115797
 20
260.0143857968
 10
-805.7127299501
 20
263.5796376241
 10
-802.0026090337
 20
267.2897883428
 10
-798.1593015386
 20
271.1330958379
 10
-794.19493701
 20
275.0974603666
 10
-790.1219728185
 20
279.170424558
 10
-785.9532537653
 20
283.3391734136
 10
-781.7018332674
 20
287.5905343068
 10
-777.3811521722
 20
291.9112750066
 10
-773.0047407343
 20
296.2876268399
 10
-768.586427231
 20
300.7059403432
 10
-764.1400697424
 20
305.1523276342
 10
-759.6797051622
 20
309.612662412
 10
-755.219340582
 20
314.0730567945
 10
-750.7729830934
 20
318.5193844808
 10
-746.3546695902
 20
322.937697984
 10
-741.9782879545
 20
327.314109422
 10
-737.657577057
 20
331.6347905172
 10
-733.4061565591
 20
335.886211015
 10
-729.2374375059
 20
340.0549598706
 10
-725.1644733144
 20
344.1279240621
 10
-721.2001087858
 20
348.0922885907
 10
-717.3568012907
 20
351.9355960858
 10
-713.6466803743
 20
355.6456871999
 10
-710.0813987447
 20
359.2109986318
 10
-706.6721620752
 20
362.620205499
 10
-703.4296992017
 20
365.8626981748
 10
-700.3642323209
 20
368.9281650556
 10
-697.4853875829
 20
371.8070097936
 10
-694.8022248937
 20
374.4901724828
 10
-692.3232081129
 20
376.9691892636
 10
-690.0561156465
 20
379.2363115323
 10
-688.0080702497
 20
381.2843271268
 10
-686.1855390264
 20
383.1068583501
 10
-684.5942440225
 20
384.6981235517
 10
-683.2391920282
 20
386.053175546
 10
-682.1246745779
 20
387.1677227986
 10
-681.2541487409
 20
388.0382486356
 10
-680.6303861333
 20
388.6620112432
 10
-680.2553537084
 20
389.0370436681
 10
-680.1301839544
 20
389.1622134221
 10
-680.1301839544
 20
389.1622134221
  0
LINE
  5
C7
330
1F
100
AcDbEntity
  8
0
  6
Continuous
 62
     7
370
    25
100
AcDbLine
 10
584.461565982
 20
-578.7105645722
 30
0.0
 11
806.8894200456
 21
-963.9669198657
 31
0.0
  0
LINE
  5
C8
330
1F
100
AcDbEntity
  8
0
  6
Continuous
 62
     7
370
    25
100
AcDbLine
 10
938.409150781
 20
-741.7657775637
 30
0.0
 11
779.3172783879
 21
-466.2105662326
 31
0.0
  0
LINE
  5
C9
330
1F
100
AcDbEntity
  8
0
  6
Continuous
 62
     7
370
    25
100
AcDbLine
 10
1031.889422517
 20
-1111.0119918365
 30
0.0
 11
1031.889422517
 21
-545.9657729836
 31
0.0
  0
LINE
  5
CA
330
1F
100
AcDbEntity
  8
0
  6
Continuous
 62
     7
370
    25
100
AcDbLine
 10
806.8894200456
 20
-960.7280498665
 30
0.0
 11
806.8894200456
 21
-1111.0119918365
 31
0.0
  0
ELLIPSE
  5
CB
330
1F
100
AcDbEntity
  8
0
  6
Continuous
 62
     7
370
    25
100
AcDbEllipse
 10
919.3894212813
 20
-933.8226356573
 30
0.0
 11
112.0944105351196
 21
30.03560685526929
 31
0.0
210
0.0
220
0.0
230
1.0
 40
0.3177652438
 41
0.7004580896382434
 42
3.056652579830584
  0
ELLIPSE
  5
CC
330
1F
100
AcDbEntity
  8
0
  6
Continuous
 62
     7
370
    25
100
AcDbEllipse
 10
919.3894212813
 20
-933.8226356573
 30
0.0
 11
-72.51389841521666
 21
270.6255524526309
 31
0.0
210
0.0
220
0.0
230
1.0
 40
0.3178248929
 41
4.797329054143884
 42
5.412847070022956
  0
LWPOLYLINE
  5
CD
330
1F
100
AcDbEntity
  8
0
  6
Continuous
 62
     7
370
    25
100
AcDbPolyline
 90
      113
 70
   128
 43
0.0
 10
738.1394280711
 20
-489.9775719731
 10
733.5905430775
 20
-492.6036039936
 10
728.8790120783
 20
-495.3235627113
 10
724.0196266419
 20
-498.1289089854
 10
719.0276788302
 20
-501.0108146353
 10
713.9188973203
 20
-503.9602236561
 10
708.7093216221
 20
-506.9678275073
 10
703.4153639819
 20
-510.0241510314
 10
698.0536816246
 20
-513.1196262224
 10
692.6411332894
 20
-516.2444713083
 10
687.1947647425
 20
-519.3889181241
 10
681.7317086778
 20
-522.5430022264
 10
676.2691346676
 20
-525.6968351346
 10
670.8242517971
 20
-528.8404811324
 10
665.4141822235
 20
-531.9640546064
 10
660.0559427368
 20
-535.0577550303
 10
654.7664078816
 20
-538.111766576
 10
649.5622151263
 20
-541.1165805529
 10
644.4597385214
 20
-544.0626455966
 10
639.4750096746
 20
-546.940778315
 10
634.623744092
 20
-549.7418803954
 10
629.9211883959
 20
-552.4571484967
 10
625.3821677405
 20
-555.0780468701
 10
621.0209119553
 20
-557.5963104079
 10
616.8511714498
 20
-560.0039993881
 10
612.886085504
 20
-562.2935998629
 10
609.1381032432
 20
-564.4578502777
 10
605.6190099799
 20
-566.4899452734
 10
602.3399114088
 20
-568.3835448107
 10
599.3111018975
 20
-570.1326068796
 10
596.5420960972
 20
-571.7317342696
 10
594.0416394789
 20
-573.1758034604
 10
591.817566088
 20
-574.4602657802
 10
589.8769197167
 20
-575.5811991081
 10
588.2257589744
 20
-576.5349094095
 10
586.869320607
 20
-577.3185421353
 10
585.8118351044
 20
-577.9295560042
 10
585.0566426044
 20
-578.3660454261
 10
584.6061138673
 20
-578.6266401372
 10
584.4616871541
 20
-578.7105325721
 10
584.6238102753
 20
-578.6173896647
 10
585.0919563951
 20
-578.3475870682
 10
585.8646609107
 20
-577.9019445213
 10
586.9395056465
 20
-577.2818566506
 10
588.3130872445
 20
-576.4892868954
 10
589.9810961895
 20
-575.5267218836
 10
591.9382931014
 20
-574.3971851219
 10
594.1785087352
 20
-573.1042370074
 10
596.6946834939
 20
-571.6519520135
 10
599.4789174774
 20
-570.0448897973
 10
602.5224441413
 20
-568.2881104177
 10
605.8156869314
 20
-566.3871416376
 10
609.3483027476
 20
-564.3479781667
 10
613.1091411143
 20
-562.1769835745
 10
617.0863930114
 20
-559.8810476998
 10
621.2675269954
 20
-557.467380199
 10
625.6394162987
 20
-554.9435588317
 10
630.1882802189
 20
-552.3175389805
 10
634.8998322915
 20
-549.5975680934
 10
639.7592177279
 20
-546.7922218193
 10
644.7511655396
 20
-543.9103405042
 10
649.8599470496
 20
-540.9609314835
 10
655.0695227477
 20
-537.9533276323
 10
660.3634803879
 20
-534.8969797733
 10
665.7251627453
 20
-531.8015045823
 10
671.1377110804
 20
-528.6766351616
 10
676.5840796273
 20
-525.5322126807
 10
682.047135692
 20
-522.3781285784
 10
687.5097097022
 20
-519.2242956701
 10
692.9545925727
 20
-516.0806496724
 10
698.3646621463
 20
-512.9570761983
 10
703.722901633
 20
-509.8634001092
 10
709.0124364882
 20
-506.8093642287
 10
714.2166292436
 20
-503.8045989215
 10
719.3191058484
 20
-500.8584852082
 10
724.3038346952
 20
-497.9803524897
 10
729.1551002779
 20
-495.1792504094
 10
733.8576559739
 20
-492.4639823081
 10
738.3966766293
 20
-489.8430839347
 10
742.7579324145
 20
-487.3248690665
 10
746.9276518466
 20
-484.9171192512
 10
750.8927588658
 20
-482.6275796114
 10
754.6407411267
 20
-480.4633291967
 10
758.1598343899
 20
-478.4311855314
 10
761.4389329611
 20
-476.5376346637
 10
764.4677424723
 20
-474.7885239251
 10
767.2367482726
 20
-473.1894452048
 10
769.7372048909
 20
-471.745376014
 10
771.9612572084
 20
-470.4608528592
 10
773.9019246531
 20
-469.3399803663
 10
775.5530853955
 20
-468.3862213953
 10
776.9095237629
 20
-467.6025886695
 10
777.9670092654
 20
-466.9915748005
 10
778.7222017654
 20
-466.5550853786
 10
779.1727305026
 20
-466.2944906676
 10
779.3171572157
 20
-466.2106469023
 10
779.1550340945
 20
-466.3037411401
 10
778.6868879747
 20
-466.5735680714
 10
777.9141834592
 20
-467.0191862835
 10
776.8393387234
 20
-467.6392741542
 10
775.4657571253
 20
-468.4318439094
 10
773.7977481803
 20
-469.3944089212
 10
771.8405512684
 20
-470.5239456828
 10
769.6003356346
 20
-471.8168694626
 10
767.084160876
 20
-473.2691787912
 10
764.2999268924
 20
-474.8762410075
 10
761.2564002285
 20
-476.6330447218
 10
757.9631574384
 20
-478.534013502
 10
754.4305416222
 20
-480.5731769728
 10
750.6697032555
 20
-482.7441472302
 10
746.6924513585
 20
-485.040083105
 10
742.511296301
 20
-487.4537627751
 10
738.1394280711
 20
-489.9775719731
  0
LWPOLYLINE
  5
CE
330
1F
100
AcDbEntity
  8
0
  6
Continuous
 62
     7
370
    25
100
AcDbPolyline
 90
      106
 70
   128
 43
0.0
 10
731.439427857
 20
-493.8466571314
 10
727.1599965563
 20
-496.3171612165
 10
722.7185290622
 20
-498.8812156941
 10
718.1308808218
 20
-501.5296429046
 10
713.4135131427
 20
-504.2530613071
 10
708.5832985938
 20
-507.0416328241
 10
703.6575292368
 20
-509.8854231007
 10
698.6538237714
 20
-512.7742117677
 10
693.5901117305
 20
-515.6976475669
 10
688.4845109905
 20
-518.6453190782
 10
683.3552948445
 20
-521.6066520504
 10
678.2208419525
 20
-524.5710356332
 10
673.0995283406
 20
-527.5278604019
 10
668.0096747169
 20
-530.46657311
 10
662.9695122276
 20
-533.3765747801
 10
657.9970586504
 20
-536.2475355392
 10
653.1101473706
 20
-539.0691588667
 10
648.326264062
 20
-541.8313002384
 10
643.6625203451
 20
-544.5240796652
 10
639.1356116403
 20
-547.1379060313
 10
634.7617539474
 20
-549.6633919209
 10
630.5565995524
 20
-552.0914752957
 10
626.5352264904
 20
-554.4135229173
 10
622.7119804949
 20
-556.6211782633
 10
619.1005856334
 20
-558.7065409834
 10
615.7139546466
 20
-560.6621547493
 10
612.5642205586
 20
-562.4810376688
 10
609.6626418463
 20
-564.156615368
 10
607.0196287813
 20
-565.682973471
 10
604.6446117208
 20
-567.0545442929
 10
602.5461359385
 20
-568.2665631148
 10
600.7316719633
 20
-569.3145206678
 10
599.2077367515
 20
-570.1948232028
 10
597.9797777835
 20
-570.9042267269
 10
597.0521941364
 20
-571.4402141868
 10
596.4283206797
 20
-571.800858592
 10
596.1103437811
 20
-571.9848717006
 10
596.0994593574
 20
-571.9916344243
 10
596.3956884822
 20
-571.8210599679
 10
596.9979248006
 20
-571.4737854661
 10
597.9040820435
 20
-570.9510868098
 10
599.1108832937
 20
-570.2547813267
 10
600.6139979623
 20
-569.3873920383
 10
602.4080681312
 20
-568.3520107828
 10
604.4866558693
 20
-567.1523529795
 10
606.8423143554
 20
-565.7927165665
 10
609.466632659
 20
-564.2779561492
 10
612.3502199353
 20
-562.6134921361
 10
615.4827106939
 20
-560.8053077054
 10
618.8529491908
 20
-558.8598423338
 10
622.4488168898
 20
-556.7840914407
 10
626.2574873198
 20
-554.5854592264
 10
630.2653019382
 20
-552.2718547012
 10
634.4579117189
 20
-549.8515125932
 10
638.8203077738
 20
-547.3330973492
 10
643.3368766714
 20
-544.7256711995
 10
647.9914732051
 20
-542.0385304721
 10
652.7673933935
 20
-539.2813185339
 10
657.6475875192
 20
-536.4638784401
 10
662.6145356643
 20
-533.5963248211
 10
667.6504966397
 20
-530.6889001395
 10
672.7374394967
 20
-527.7520142512
 10
677.8571330891
 20
-524.7961926942
 10
682.9912567088
 20
-521.8320128086
 10
688.1214448666
 20
-518.8700778848
 10
693.229316268
 20
-515.9210004403
 10
698.2965897176
 20
-512.9953109588
 10
703.3051526073
 20
-510.1035400228
 10
708.237029306
 20
-507.2559932299
 10
713.0745918946
 20
-504.4628485114
 10
717.8005390915
 20
-501.7341683143
 10
722.397901522
 20
-499.0796775504
 10
726.8502787936
 20
-496.5088700434
 10
731.1417025191
 20
-494.0309659584
 10
735.2568049039
 20
-491.6548144545
 10
739.1808872345
 20
-489.3890001477
 10
742.8998566585
 20
-487.241490259
 10
746.4004474553
 20
-485.2201395501
 10
749.6700893273
 20
-483.3320363368
 10
752.6970970607
 20
-481.584050005
 10
755.4706389156
 20
-479.9823382389
 10
757.980773504
 20
-478.5327150735
 10
760.2185182789
 20
-477.2403436692
 10
762.175881144
 20
-476.1098397265
 10
763.8458077706
 20
-475.1452532377
 10
765.2223712582
 20
-474.3500806363
 10
766.3006298887
 20
-473.7271035894
 10
767.0767219572
 20
-473.2785775777
 10
767.5478552349
 20
-473.006140639
 10
767.7123491163
 20
-472.910716021
 10
767.5696135455
 20
-472.9926460165
 10
767.1201911631
 20
-473.2516676253
 10
766.3656466709
 20
-473.6868790908
 10
765.3086985406
 20
-474.2966395038
 10
763.9531215495
 20
-475.0788440928
 10
762.3037915609
 20
-476.0306550084
 10
760.3666091336
 20
-477.1486671013
 10
758.1484889851
 20
-478.4288896656
 10
755.6573784305
 20
-479.8667601179
 10
752.9022073332
 20
-481.45707555
 10
749.8928130311
 20
-483.1941577472
 10
746.6399864346
 20
-485.0718265597
 10
743.1553719276
 20
-487.0833116881
 10
739.4514588067
 20
-489.2215009654
 10
735.5414630724
 20
-491.4786435875
 10
731.439427857
 20
-493.8466571314
  0
LWPOLYLINE
  5
CF
330
1F
100
AcDbEntity
  8
0
  6
Continuous
 62
     7
370
    25
100
AcDbPolyline
 90
      113
 70
   128
 43
0.0
 10
839.8399105051
 20
-1156.93494691
 10
835.5046784233
 20
-1154.2877819014
 10
831.4333791265
 20
-1151.5044545697
 10
827.638823281
 20
-1148.5937228834
 10
824.132947006
 20
-1145.5647462697
 10
820.9267848733
 20
-1142.4270517802
 10
818.0304231506
 20
-1139.1905131812
 10
815.4529721426
 20
-1135.8653167381
 10
813.2025490689
 20
-1132.4619209183
 10
811.2862240633
 20
-1128.9910373818
 10
809.7100320278
 20
-1125.4635830804
 10
808.4789304853
 20
-1121.8906620092
 10
807.596796946
 20
-1118.2835089418
 10
807.0664051992
 20
-1114.6534818268
 10
806.8894200456
 20
-1111.0119918365
 10
807.0664051992
 20
-1107.3705018461
 10
807.596796946
 20
-1103.7404747311
 10
808.4789304853
 20
-1100.1333216638
 10
809.7100320278
 20
-1096.5604005926
 10
811.2862240633
 20
-1093.0329462911
 10
813.2025490689
 20
-1089.5620627546
 10
815.4529721426
 20
-1086.1586669348
 10
818.0304231506
 20
-1082.8334704918
 10
820.9267848733
 20
-1079.5969318927
 10
824.132947006
 20
-1076.4592374033
 10
827.638823281
 20
-1073.4302607896
 10
831.4333791265
 20
-1070.5195291032
 10
835.5046784233
 20
-1067.7362017716
 10
839.8399105051
 20
-1065.089036763
 10
844.4254316468
 20
-1062.5863605531
 10
849.2468184066
 20
-1060.2360494968
 10
854.2888998946
 20
-1058.0454990344
 10
859.535809798
 20
-1056.0215997408
 10
864.9710449915
 20
-1054.1707217386
 10
870.577501757
 20
-1052.4986877063
 10
876.3375350531
 20
-1051.0107569109
 10
882.2330283202
 20
-1049.7116153235
 10
888.2454264085
 20
-1048.6053444454
 10
894.3558185537
 20
-1047.6954281514
 10
900.5449699878
 20
-1046.9847283586
 10
906.7934194037
 20
-1046.4754835059
 10
913.0814921255
 20
-1046.1692948679
 10
919.3894212813
 20
-1046.0671235135
 10
925.6973504371
 20
-1046.1692948679
 10
931.9854231589
 20
-1046.4754835059
 10
938.2338725747
 20
-1046.9847283586
 10
944.4230240089
 20
-1047.6954281514
 10
950.5334161541
 20
-1048.6053444454
 10
956.5458142423
 20
-1049.7116153235
 10
962.4413075095
 20
-1051.0107569109
 10
968.2013408056
 20
-1052.4986877063
 10
973.8077975711
 20
-1054.1707217386
 10
979.2430327645
 20
-1056.0215997408
 10
984.489942668
 20
-1058.0454990344
 10
989.532024156
 20
-1060.2360494968
 10
994.3534109157
 20
-1062.5863605531
 10
998.9389320574
 20
-1065.089036763
 10
1003.2741641393
 20
-1067.7362017716
 10
1007.3454634361
 20
-1070.5195291032
 10
1011.1400192816
 20
-1073.4302607896
 10
1014.6458955566
 20
-1076.4592374033
 10
1017.8520576893
 20
-1079.5969318927
 10
1020.748419412
 20
-1082.8334704918
 10
1023.32587042
 20
-1086.1586669348
 10
1025.5762934937
 20
-1089.5620627546
 10
1027.4926184993
 20
-1093.0329462911
 10
1029.0688105348
 20
-1096.5604005926
 10
1030.2999120773
 20
-1100.1333216638
 10
1031.1820456166
 20
-1103.7404747311
 10
1031.7124373633
 20
-1107.3705018461
 10
1031.889422517
 20
-1111.0119918365
 10
1031.7124373633
 20
-1114.6534818268
 10
1031.1820456166
 20
-1118.2835089418
 10
1030.2999120773
 20
-1121.8906620092
 10
1029.0688105348
 20
-1125.4635830804
 10
1027.4926184993
 20
-1128.9910373818
 10
1025.5762934937
 20
-1132.4619209183
 10
1023.32587042
 20
-1135.8653167381
 10
1020.748419412
 20
-1139.1905131812
 10
1017.8520576893
 20
-1142.4270517802
 10
1014.6458955566
 20
-1145.5647462697
 10
1011.1400192816
 20
-1148.5937228834
 10
1007.3454634361
 20
-1151.5044545697
 10
1003.2741641393
 20
-1154.2877819014
 10
998.9389320574
 20
-1156.93494691
 10
994.3534109157
 20
-1159.4376231198
 10
989.532024156
 20
-1161.7879341761
 10
984.489942668
 20
-1163.9784846386
 10
979.2430327645
 20
-1166.0023839322
 10
973.8077975711
 20
-1167.8532619344
 10
968.2013408056
 20
-1169.5252959666
 10
962.4413075095
 20
-1171.0132267621
 10
956.5458142423
 20
-1172.3123683495
 10
950.5334161541
 20
-1173.4186392276
 10
944.4230240089
 20
-1174.3285555216
 10
938.2338725747
 20
-1175.0392553144
 10
931.9854231589
 20
-1175.5485001671
 10
925.6973504371
 20
-1175.854688805
 10
919.3894212813
 20
-1175.9568601594
 10
913.0814921255
 20
-1175.854688805
 10
906.7934194037
 20
-1175.5485001671
 10
900.5449699878
 20
-1175.0392553144
 10
894.3558185537
 20
-1174.3285555216
 10
888.2454264085
 20
-1173.4186392276
 10
882.2330283202
 20
-1172.3123683495
 10
876.3375350531
 20
-1171.0132267621
 10
870.577501757
 20
-1169.5252959666
 10
864.9710449915
 20
-1167.8532619344
 10
859.535809798
 20
-1166.0023839322
 10
854.2888998946
 20
-1163.9784846386
 10
849.2468184066
 20
-1161.7879341761
 10
844.4254316469
 20
-1159.4376231198
 10
839.8399105051
 20
-1156.93494691
  0
LWPOLYLINE
  5
D0
330
1F
100
AcDbEntity
  8
0
  6
Continuous
 62
     7
370
    25
100
AcDbPolyline
 90
       52
 70
   128
 43
0.0
 10
813.0887552121
 20
-524.7045038521
 10
813.2025490689
 20
-524.5158439018
 10
815.4529721426
 20
-521.112448082
 10
818.0304231506
 20
-517.7872516389
 10
820.9267848733
 20
-514.5507130399
 10
824.132947006
 20
-511.4130185504
 10
827.638823281
 20
-508.3840419367
 10
831.4333791265
 20
-505.4733102504
 10
835.5046784233
 20
-502.6899829187
 10
839.8399105051
 20
-500.0428179101
 10
844.4254316468
 20
-497.5401417002
 10
849.2468184066
 20
-495.189830644
 10
854.2888998946
 20
-492.9992801815
 10
859.535809798
 20
-490.9753808879
 10
864.9710449915
 20
-489.1245028857
 10
870.577501757
 20
-487.4524688535
 10
876.3375350531
 20
-485.964538058
 10
882.2330283202
 20
-484.6653964706
 10
888.2454264085
 20
-483.5591255925
 10
894.3558185537
 20
-482.6492092985
 10
900.5449699878
 20
-481.9385095057
 10
906.7934194037
 20
-481.429264653
 10
913.0814921255
 20
-481.1230760151
 10
919.3894212813
 20
-481.0209046607
 10
925.6973504371
 20
-481.1230760151
 10
931.9854231589
 20
-481.429264653
 10
938.2338725747
 20
-481.9385095057
 10
944.4230240089
 20
-482.6492092985
 10
950.5334161541
 20
-483.5591255925
 10
956.5458142423
 20
-484.6653964706
 10
962.4413075095
 20
-485.964538058
 10
968.2013408056
 20
-487.4524688535
 10
973.8077975711
 20
-489.1245028857
 10
979.2430327645
 20
-490.9753808879
 10
984.489942668
 20
-492.9992801815
 10
989.532024156
 20
-495.189830644
 10
994.3534109157
 20
-497.5401417002
 10
998.9389320574
 20
-500.0428179101
 10
1003.2741641393
 20
-502.6899829187
 10
1007.3454634361
 20
-505.4733102504
 10
1011.1400192816
 20
-508.3840419367
 10
1014.6458955566
 20
-511.4130185504
 10
1017.8520576893
 20
-514.5507130399
 10
1020.748419412
 20
-517.7872516389
 10
1023.32587042
 20
-521.112448082
 10
1025.5762934937
 20
-524.5158439018
 10
1027.4926184993
 20
-527.9867274383
 10
1029.0688105348
 20
-531.5141817397
 10
1030.2999120773
 20
-535.0871028109
 10
1031.1820456166
 20
-538.6942558783
 10
1031.7124373633
 20
-542.3242829933
 10
1031.889422517
 20
-545.9657729836
  0
LWPOLYLINE
  5
D1
330
1F
100
AcDbEntity
  8
0
  6
Continuous
 62
     7
370
    25
100
AcDbPolyline
 90
      106
 70
   128
 43
0.0
 10
849.3151384481
 20
-1151.4650142493
 10
845.2498289428
 20
-1148.9733498435
 10
841.4499207768
 20
-1146.3457930351
 10
837.9290145405
 20
-1143.5917524528
 10
834.6997151051
 20
-1140.7210838048
 10
831.7735845364
 20
-1137.7440626965
 10
829.1610976435
 20
-1134.671346804
 10
826.871601807
 20
-1131.513940518
 10
824.9132959062
 20
-1128.2831401997
 10
823.2931868545
 20
-1124.9905151718
 10
822.0170830145
 20
-1121.6478491729
 10
821.0895441485
 20
-1118.2671114644
 10
820.513894589
 20
-1114.8603975238
 10
820.2921916291
 20
-1111.4399107971
 10
820.4252334248
 20
-1108.0178942677
 10
820.9125431898
 20
-1104.6065939605
 10
821.7523665616
 20
-1101.2182209247
 10
822.941713748
 20
-1097.8649086548
 10
824.4763147466
 20
-1094.5586598673
 10
826.3506799303
 20
-1091.3113115243
 10
828.5581026818
 20
-1088.1344846519
 10
831.0906725646
 20
-1085.0395524052
 10
833.9393319573
 20
-1082.0375952091
 10
837.0938826398
 20
-1079.1393604595
 10
840.5430279396
 20
-1076.355219945
 10
844.2744214643
 20
-1073.6951417138
 10
848.2747133642
 20
-1071.1686512017
 10
852.5295682778
 20
-1068.784784376
 10
857.0237687233
 20
-1066.5520827935
 10
861.7412213546
 20
-1064.4785352441
 10
866.6650401028
 20
-1062.5715662511
 10
871.7776029753
 20
-1060.8380032813
 10
877.0605958494
 20
-1059.284045381
 10
882.4951184977
 20
-1057.9152627959
 10
888.0617161983
 20
-1056.7365543923
 10
893.740453492
 20
-1055.7521354912
 10
899.5110076951
 20
-1054.9655325463
 10
905.3527242177
 20
-1054.3795633751
 10
911.2446903205
 20
-1053.9963249933
 10
917.1658062374
 20
-1053.8171829704
 10
923.0948879087
 20
-1053.8427851155
 10
929.0107038594
 20
-1054.0730401878
 10
934.8920752981
 20
-1054.5071209382
 10
940.7179551424
 20
-1055.1434732331
 10
946.4674807023
 20
-1055.9798221373
 10
952.1200764132
 20
-1057.0131703934
 10
957.6555038851
 20
-1058.2398212315
 10
963.0539514653
 20
-1059.6553814112
 10
968.296086921
 20
-1061.2547855521
 10
973.3631522706
 20
-1063.0323082992
 10
978.2370019786
 20
-1064.9815863728
 10
982.9001944937
 20
-1067.0956409986
 10
987.3360367006
 20
-1069.3669035692
 10
991.5286464812
 20
-1071.7872456771
 10
995.4630149477
 20
-1074.3480028759
 10
999.1250617601
 20
-1077.040006614
 10
1002.5016762849
 20
-1079.853620161
 10
1005.5807696206
 20
-1082.7787747236
 10
1008.3513190492
 20
-1085.8049951073
 10
1010.8034068905
 20
-1088.9214525596
 10
1012.9282586974
 20
-1092.1169868203
 10
1014.7182643296
 20
-1095.3801608656
 10
1016.1670201004
 20
-1098.6992913217
 10
1017.2693340447
 20
-1102.0625001679
 10
1018.0212654322
 20
-1105.4577436297
 10
1018.4201221331
 20
-1108.872871485
 10
1018.4644711545
 20
-1112.2956574777
 10
1018.1541544456
 20
-1115.7138449384
 10
1017.4902941663
 20
-1119.1152045695
 10
1016.4752558086
 20
-1122.4875557355
 10
1015.1126719038
 20
-1125.8188257689
 10
1013.407423584
 20
-1129.0970910287
 10
1011.3656195079
 20
-1132.3106194794
 10
1008.994561617
 20
-1135.4479026253
 10
1006.3027359159
 20
-1138.4977094946
 10
1003.2997913988
 20
-1141.4491292181
 10
999.9964662923
 20
-1144.291589278
 10
996.4045873973
 20
-1147.0149167144
 10
992.5370157587
 20
-1149.6093634073
 10
988.4075898663
 20
-1152.0656388656
 10
984.0311057333
 20
-1154.3749582242
 10
979.4232158103
 20
-1156.5290458549
 10
974.6004204238
 20
-1158.5201950537
 10
969.5799866109
 20
-1160.3412783998
 10
964.3798807827
 20
-1161.9857744632
 10
959.0187199926
 20
-1163.4477959365
 10
953.5156981788
 20
-1164.7221139663
 10
947.8905163587
 20
-1165.8041619548
 10
942.1633049209
 20
-1166.6900682542
 10
936.3545683072
 20
-1167.3766637704
 10
930.4850980849
 20
-1167.8614834833
 10
924.5759123603
 20
-1168.1428014226
 10
918.6481635831
 20
-1168.2196048164
 10
912.723064789
 20
-1168.0916184219
 10
906.8218237454
 20
-1167.7593030048
 10
900.9655797309
 20
-1167.2238462149
 10
895.1752849976
 20
-1166.4871671488
 10
889.4716731608
 20
-1165.551898101
 10
883.8751564661
 20
-1164.4213921679
 10
878.4057757399
 20
-1163.0996943547
 10
873.0830989738
 20
-1161.5915377734
 10
867.926188397
 20
-1159.9023185521
 10
862.9535056463
 20
-1158.0380836694
 10
858.1828505213
 20
-1156.0055077638
 10
853.6312954589
 20
-1153.8118674725
 10
849.3151384481
 20
-1151.4650142493
  0
ENDSEC
  0
SECTION
  2
OBJECTS
  0
DICTIONARY
  5
C
330
0
100
AcDbDictionary
281
     1
  3
ACAD_GROUP
350
D
  3
ACAD_LAYOUT
350
1A
  3
ACAD_MLINESTYLE
350
17
  3
ACAD_PLOTSETTINGS
350
19
  3
ACAD_PLOTSTYLENAME
350
E
  3
ACAD_SCALELIST
350
47
  0
DICTIONARY
  5
D
102
{ACAD_REACTORS
330
C
102
}
330
C
100
AcDbDictionary
281
     1
  0
DICTIONARY
  5
1A
102
{ACAD_REACTORS
330
C
102
}
330
C
100
AcDbDictionary
281
     1
  3
Layout1
350
1E
  3
Layout2
350
26
  3
Model
350
22
  0
DICTIONARY
  5
17
102
{ACAD_REACTORS
330
C
102
}
330
C
100
AcDbDictionary
281
     1
  3
Standard
350
18
  0
DICTIONARY
  5
19
102
{ACAD_REACTORS
330
C
102
}
330
C
100
AcDbDictionary
281
     1
  0
ACDBDICTIONARYWDFLT
  5
E
102
{ACAD_REACTORS
330
C
102
}
330
C
100
AcDbDictionary
281
     1
  3
Normal
350
F
100
AcDbDictionaryWithDefault
340
F
  0
DICTIONARY
  5
47
102
{ACAD_REACTORS
330
C
102
}
330
C
100
AcDbDictionary
281
     1
  3
A0
350
48
  3
A1
350
49
  3
A2
350
4A
  3
A3
350
4B
  3
A4
350
4C
  3
A5
350
4D
  3
A6
350
4E
  3
A7
350
4F
  3
A8
350
50
  3
A9
350
51
  3
B0
350
52
  3
B1
350
53
  3
B2
350
54
  3
B3
350
55
  3
B4
350
56
  3
B5
350
57
  3
B6
350
58
  3
B7
350
59
  3
B8
350
5A
  3
B9
350
5B
  3
C0
350
5C
  3
C1
350
5D
  3
C2
350
5E
  3
C3
350
5F
  3
C4
350
60
  3
C5
350
61
  3
C6
350
62
  3
C7
350
63
  3
C8
350
64
  3
C9
350
65
  3
D0
350
66
  3
D1
350
67
  3
D2
350
68
  0
LAYOUT
  5
1E
102
{ACAD_REACTORS
330
1A
102
}
330
1A
100
AcDbPlotSettings
  1

  2
none_device
  4

  6

 40
0.0
 41
0.0
 42
0.0
 43
0.0
 44
0.0
 45
0.0
 46
0.0
 47
0.0
 48
0.0
 49
0.0
140
0.0
141
0.0
142
1.0
143
1.0
 70
   688
 72
     1
 73
     0
 74
     5
  7

 75
    16
147
1.0
148
0.0
149
0.0
100
AcDbLayout
  1
Layout1
 70
     1
 71
     1
 10
0.0
 20
0.0
 11
420.0
 21
297.0
 12
0.0
 22
0.0
 32
0.0
 14
1.0000000000E+20
 24
1.0000000000E+20
 34
1.0000000000E+20
 15
-1.0000000000E+20
 25
-1.0000000000E+20
 35
-1.0000000000E+20
146
0.0
 13
0.0
 23
0.0
 33
0.0
 16
1.0
 26
0.0
 36
0.0
 17
0.0
 27
1.0
 37
0.0
 76
     0
330
1B
  0
LAYOUT
  5
26
102
{ACAD_REACTORS
330
1A
102
}
330
1A
100
AcDbPlotSettings
  1

  2
none_device
  4

  6

 40
0.0
 41
0.0
 42
0.0
 43
0.0
 44
0.0
 45
0.0
 46
0.0
 47
0.0
 48
0.0
 49
0.0
140
0.0
141
0.0
142
1.0
143
1.0
 70
   688
 72
     1
 73
     0
 74
     5
  7

 75
    16
147
1.0
148
0.0
149
0.0
100
AcDbLayout
  1
Layout2
 70
     1
 71
     2
 10
0.0
 20
0.0
 11
0.0
 21
0.0
 12
0.0
 22
0.0
 32
0.0
 14
0.0
 24
0.0
 34
0.0
 15
0.0
 25
0.0
 35
0.0
146
0.0
 13
0.0
 23
0.0
 33
0.0
 16
1.0
 26
0.0
 36
0.0
 17
0.0
 27
1.0
 37
0.0
 76
     0
330
23
  0
LAYOUT
  5
22
102
{ACAD_REACTORS
330
1A
102
}
330
1A
100
AcDbPlotSettings
  1

  2
none_device
  4
Letter_(8.50_x_11.00_Inches)
  6

 40
6.35
 41
6.35
 42
6.35000508
 43
6.35000508
 44
215.9
 45
279.4
 46
0.0
 47
0.0
 48
0.0
 49
0.0
140
0.0
141
0.0
142
1.0
143
1.0
 70
  1712
 72
     1
 73
     0
 74
     0
  7

 75
     0
147
1.0
148
0.0
149
0.0
100
AcDbLayout
  1
Model
 70
     1
 71
     0
 10
0.0
 20
0.0
 11
279.4
 21
215.9
 12
0.0
 22
0.0
 32
0.0
 14
0.0
 24
0.0
 34
0.0
 15
279.4
 25
215.9
 35
0.0
146
0.0
 13
0.0
 23
0.0
 33
0.0
 16
1.0
 26
0.0
 36
0.0
 17
0.0
 27
1.0
 37
0.0
 76
     0
330
1F
331
29
  0
MLINESTYLE
  5
18
102
{ACAD_REACTORS
330
17
102
}
330
17
100
AcDbMlineStyle
  2
Standard
 70
     0
  3

 62
   256
 51
90.0
 52
90.0
 71
     2
 49
0.5
 62
   256
  6
BYLAYER
 49
-0.5
 62
   256
  6
BYLAYER
  0
ACDBPLACEHOLDER
  5
F
102
{ACAD_REACTORS
330
E
102
}
330
E
  0
SCALE
  5
48
102
{ACAD_REACTORS
330
47
102
}
330
47
100
AcDbScale
 70
     0
300
1:1
140
1.0
141
1.0
290
     1
  0
SCALE
  5
49
102
{ACAD_REACTORS
330
47
102
}
330
47
100
AcDbScale
 70
     0
300
1:2
140
1.0
141
2.0
290
     0
  0
SCALE
  5
4A
102
{ACAD_REACTORS
330
47
102
}
330
47
100
AcDbScale
 70
     0
300
1:4
140
1.0
141
4.0
290
     0
  0
SCALE
  5
4B
102
{ACAD_REACTORS
330
47
102
}
330
47
100
AcDbScale
 70
     0
300
1:5
140
1.0
141
5.0
290
     0
  0
SCALE
  5
4C
102
{ACAD_REACTORS
330
47
102
}
330
47
100
AcDbScale
 70
     0
300
1:8
140
1.0
141
8.0
290
     0
  0
SCALE
  5
4D
102
{ACAD_REACTORS
330
47
102
}
330
47
100
AcDbScale
 70
     0
300
1:10
140
1.0
141
10.0
290
     0
  0
SCALE
  5
4E
102
{ACAD_REACTORS
330
47
102
}
330
47
100
AcDbScale
 70
     0
300
1:16
140
1.0
141
16.0
290
     0
  0
SCALE
  5
4F
102
{ACAD_REACTORS
330
47
102
}
330
47
100
AcDbScale
 70
     0
300
1:20
140
1.0
141
20.0
290
     0
  0
SCALE
  5
50
102
{ACAD_REACTORS
330
47
102
}
330
47
100
AcDbScale
 70
     0
300
1:30
140
1.0
141
30.0
290
     0
  0
SCALE
  5
51
102
{ACAD_REACTORS
330
47
102
}
330
47
100
AcDbScale
 70
     0
300
1:40
140
1.0
141
40.0
290
     0
  0
SCALE
  5
52
102
{ACAD_REACTORS
330
47
102
}
330
47
100
AcDbScale
 70
     0
300
1:50
140
1.0
141
50.0
290
     0
  0
SCALE
  5
53
102
{ACAD_REACTORS
330
47
102
}
330
47
100
AcDbScale
 70
     0
300
1:100
140
1.0
141
100.0
290
     0
  0
SCALE
  5
54
102
{ACAD_REACTORS
330
47
102
}
330
47
100
AcDbScale
 70
     0
300
2:1
140
2.0
141
1.0
290
     0
  0
SCALE
  5
55
102
{ACAD_REACTORS
330
47
102
}
330
47
100
AcDbScale
 70
     0
300
4:1
140
4.0
141
1.0
290
     0
  0
SCALE
  5
56
102
{ACAD_REACTORS
330
47
102
}
330
47
100
AcDbScale
 70
     0
300
8:1
140
8.0
141
1.0
290
     0
  0
SCALE
  5
57
102
{ACAD_REACTORS
330
47
102
}
330
47
100
AcDbScale
 70
     0
300
10:1
140
10.0
141
1.0
290
     0
  0
SCALE
  5
58
102
{ACAD_REACTORS
330
47
102
}
330
47
100
AcDbScale
 70
     0
300
100:1
140
100.0
141
1.0
290
     0
  0
SCALE
  5
59
102
{ACAD_REACTORS
330
47
102
}
330
47
100
AcDbScale
 70
     0
300
1/128" = 1'-0"
140
0.0078125
141
12.0
290
     0
  0
SCALE
  5
5A
102
{ACAD_REACTORS
330
47
102
}
330
47
100
AcDbScale
 70
     0
300
1/64" = 1'-0"
140
0.015625
141
12.0
290
     0
  0
SCALE
  5
5B
102
{ACAD_REACTORS
330
47
102
}
330
47
100
AcDbScale
 70
     0
300
1/32" = 1'-0"
140
0.03125
141
12.0
290
     0
  0
SCALE
  5
5C
102
{ACAD_REACTORS
330
47
102
}
330
47
100
AcDbScale
 70
     0
300
1/16" = 1'-0"
140
0.0625
141
12.0
290
     0
  0
SCALE
  5
5D
102
{ACAD_REACTORS
330
47
102
}
330
47
100
AcDbScale
 70
     0
300
3/32" = 1'-0"
140
0.09375
141
12.0
290
     0
  0
SCALE
  5
5E
102
{ACAD_REACTORS
330
47
102
}
330
47
100
AcDbScale
 70
     0
300
1/8" = 1'-0"
140
0.125
141
12.0
290
     0
  0
SCALE
  5
5F
102
{ACAD_REACTORS
330
47
102
}
330
47
100
AcDbScale
 70
     0
300
3/16" = 1'-0"
140
0.1875
141
12.0
290
     0
  0
SCALE
  5
60
102
{ACAD_REACTORS
330
47
102
}
330
47
100
AcDbScale
 70
     0
300
1/4" = 1'-0"
140
0.25
141
12.0
290
     0
  0
SCALE
  5
61
102
{ACAD_REACTORS
330
47
102
}
330
47
100
AcDbScale
 70
     0
300
3/8" = 1'-0"
140
0.375
141
12.0
290
     0
  0
SCALE
  5
62
102
{ACAD_REACTORS
330
47
102
}
330
47
100
AcDbScale
 70
     0
300
1/2" = 1'-0"
140
0.5
141
12.0
290
     0
  0
SCALE
  5
63
102
{ACAD_REACTORS
330
47
102
}
330
47
100
AcDbScale
 70
     0
300
3/4" = 1'-0"
140
0.75
141
12.0
290
     0
  0
SCALE
  5
64
102
{ACAD_REACTORS
330
47
102
}
330
47
100
AcDbScale
 70
     0
300
1" = 1'-0"
140
1.0
141
12.0
290
     0
  0
SCALE
  5
65
102
{ACAD_REACTORS
330
47
102
}
330
47
100
AcDbScale
 70
     0
300
1-1/2" = 1'-0"
140
1.5
141
12.0
290
     0
  0
SCALE
  5
66
102
{ACAD_REACTORS
330
47
102
}
330
47
100
AcDbScale
 70
     0
300
3" = 1'-0"
140
3.0
141
12.0
290
     0
  0
SCALE
  5
67
102
{ACAD_REACTORS
330
47
102
}
330
47
100
AcDbScale
 70
     0
300
6" = 1'-0"
140
6.0
141
12.0
290
     0
  0
SCALE
  5
68
102
{ACAD_REACTORS
330
47
102
}
330
47
100
AcDbScale
 70
     0
300
1'-0" = 1'-0"
140
12.0
141
12.0
290
     0
  0
ENDSEC
  0
EOF
